Misc - Super Grunge Shred Chords & Tabs

 

Super Grunge Shred Chords & Tabs

Misc Chords & Tabs

Version: 1 Type: Tab 1 rating
1 star 2 stars 3 stars 4 stars 5 stars
comments

Super Grunge Shred Tab

 What up.
This is my 2nd riff that I created off of Tab notation. 
My other (called Kick ass riffage) recieved crappy reviews.
I hope that this will renew your thoughts about me being a rookie tabber.
I am a 15 year old shredder and this is how I kick it.
This song has really weird timing so you'll have to grasp that.
It is played at 70 wpm but the rhythm figure is played fast.
Tune your guit to Eb and use Metal distortion, Flanger, and attitude.
This song is played in the style of White Zombie's J.
Here it is, Super Grunge Shred by C. Wright 
(Beware, it's a monster)
Notation explanation:
 *= artificial harm.
 pm = Palm mute
 ~ = Vibrato
 ^(#) = Bend to (fret)
 ^sb = Slight bend
 h = Hammer on
 p = pull off
Line 1
|------------------------------------------------------------|
|------------------------------------------------------------|
|------------------------------------------------------------|
|------------------------------------------------------------|
|------------------2-3-2-----------------------2-3-2---------|
|---0*--0pm----2-3-------3-2h3p2-0*-0pm----2-3-------2-3-3---|
 Line 2
|------------------------------------------------------------|
|------------------------------------------------------------|
|------------------------------------------------------------|
|--------------------------------------------Rpt bth lines 4x|
|-----3-4-3-----------------2-3-2----------------------------|
|-3-4-------4-2-3-3pm---2-3-------3-1-0*--0pm----------------|then...
 Line 3 ( Rhythm solo ) 
|--0--------------------------------------------0h1p0--------|
|--0---------------------------------------------------------|
|--0-let chord ring------------------------------------------|
|--2---------------------------------------------------------|
|--2--------------------------0-------x3---------------------|
|--0-------------------0--2-3---3-2-0----0*------------------|
                       ^^Played rapidly
 Line 4 (Lead solo)
|------------------------------------------------------------|
|--------------------------8-10^(12)--10^sb-8-10~~-----------|
|------9~---7-9h10p9~--7-9-----------------------------------|
|------------------------------------------------------------|
|------------------------------------------------------------|
|-0-----------------------------------0----------------------|

 Line 5 (solo cont.)     Shredding time
|--12~---10-12h13p12~-----15^(17)---12-----------4x-----------|
|--------------------------------------15-12------------------|
|--------------------------------------------15---------------|
|------------------------------------------------------------|
|------------------------------------------------------------|
|------0-----------------------------------------------0-----|
                                     ^Rapid
[ Tab from: http://www.guitartabs.cc/tabs/m/misc/super_grunge_shred_tab.html ]
Line 6 (solo cont.)
|-------------------16p12--------------------------16p12-----|
|----------12h15p12-------15p12-----------12h15p12------15p12|
|-12h13h14-----------------------12h13h14--------------------|
|------------------------------------------------------------|
|------------------------------------------------------------|
|------------------------------------------------------------|
^Shredding all the way
Line 7 (solo cont.)
|-------------------16p12--------------------------16p12-----|
|----------12h15p12-------15p12-----------12h15p12------15p12|
|-12h13h14-----------------------12h13h14--------------------|
|------------------------------------------------------------|
|------------------------------------------------------------|
|------------------------------------------------------------|
^Shredding all the way
Line 8 (Solo cont.)
|------------------------------------------------------------|
|------------------------------------------------------------|
|------------------------------------------------see below---|
|-----------12----------------12-----------------------12-14 -|
|--12-13-14----14-13-12-13-14----14-13-----------------------|
|------------------------------------------------------------|

^Rapidly picked
Line 9(Solo cont.)
|--------------------------------------------------------------------- ----|
|----------------12----------14-12----12------------------------------ ----|
|-12----12-14-15----15-14-12-------15----15-14-15-14-13-12------------ ----|
|----14----------------------------------------------------14-12-14- 12----|
|--------------------------------------------------------------------- -14-|
|--------------------------------------------------------------------- ----|
^Use a wah and play with fret melting speed and accuracy .    ending of solo
Line 10 (Main rhythm)
|------------------------------------------------------------|
|------------------------------------------------------------|
|------------------------------------------------------------|
|------------------------------------------------------------|
|------------------2-3-2-----------------------2-3-2---------|
|---0*--0pm----2-3-------3-2h3p2-0*-0pm----2-3-------2-3-3---|
 Line 11 (Main Rhythm cont.)                                  }
|------------------------------------------------------------|
|------------------------------------------------------------|
|------------------------------------------------------------|
|--------------------------------------------Rpt bth lines 4x|
|-----3-4-3-----------------2-3-2----------------------------|
|-3-4-------4-2-3-3pm---2-3-------3-1-0*--0pm----------------|then...
Line 12 (Ending)
|-----------------------------------------0------------------|
|-----------------------------------------8------------------|
|---------------------------then----------7-let chord ring---|
|--2--3--2--------------------------------6------------------|
|--2--3--2-let chord ring-----------------7------------------|
|--0--0--0--------------------------------0------------------|

~~~~~~~~~~~~~~~~~~~~~~~~~~~~~~~~~~~~~~~~~~~~~~~~~~~~~~~~~~~~~~~~
Well that's pretty much it. I hope you enjoy this and (Unlike my previous song)
actually have fun playing and learning it. I love to see others succeed in Music.
I hope you do. Email me: Webmaster@whitezombie666.zzn.com
Peace out and enjoy all real music.
Cody
Comments