Misc - Sunday Afternoon Chords & Tabs

 

Sunday Afternoon Chords & Tabs

Misc Chords & Tabs

Version: 1 Type: Tab 0 ratings
1 star 2 stars 3 stars 4 stars 5 stars
comments

Sunday Afternoon Tab

#----------------------------------PLEASE NOTE--------------------------------#
#This file is the author's own work and represents their interpretation of the#
#song. You may only use this file for private study, scholarship, or research.#
#-----------------------------------------------------------------------------#
#-- File created with Instab - http://www.pconline.com/~smcarey/instab.html --#
#-----------------------------------------------------------------------------#

Author/Artist: Aaron Hipple
Title: Sunday Afternoon
Album: None
Transcribed by: Aaron Hipple
Email: Flyboy_AJH@Juno.com

They say to write what you know. I know boredom.

I tried to put bars where the pauses were. Basically, play it real lazy-like.

-----------------------

Chorus

-|--------------------|-------------------|------------------|----------------
-|---9-----7----------|-------------------|---12---10--------|-^12------------
-|---9-----7----------|-----7h9p7---------|---11---11--------|----------------
-|-9-----9------------|-7h9-------9p7-----|-9----9-----------|----------------
-|--------------------|-------------------|------------------|----------------
-|--------------------|-------------------|------------------|----------------
                                                                              
[ Tab from: http://www.guitartabs.cc/tabs/m/misc/sunday_afternoon_tab.html ]
-|--------------------|-------------------|------------------|----------------
-|-----9-----7--------|-------------------|---12---10--------|----^12---------
-|-----9-----7--------|-----7h9p7---------|---11---11--------|-^12----11---9--
-|-7h9-----9----------|-7h9-------9p7-----|-9----9-----------|--------10---10-
-|--------------------|-------------------|------------------|----------------
-|--------------------|-------------------|------------------|----------------
                                                                              

---------------------|--------------------------------------------------------
---------------------|-^12----------------------------------------------------
-11------------------|---------^12--------------------------------------------
-10---10---10-10-10--|-------------^12----------------------------------------
------9----9--9--9---|-----------------^12------------------------------------
-----------11-10-9---|-----^12------------------------------------------------

Repeat the chorus as desired, preferably varying it each time, then end with 
this:

Outro                                                                              

-|--------------|-------------|-----------------------------------------------
-|---7-------9--|---9-----10--|-12---12---3h4---------------------------------
-|---7-------9--|---9-----11--|-11---11---4-----------------------------------
-|-9-----7h9----|-9-----9-----|-9----9----4-----------------------------------
-|--------------|-------------|------9----2-----------------------------------
-|--------------|-------------|-----------------------------------------------
                                                                              

Comments