Misc - Step By Step Blues Chords & Tabs

 

Step By Step Blues Chords & Tabs

Misc Chords & Tabs

Version: 1 Type: Tab 0 ratings
1 star 2 stars 3 stars 4 stars 5 stars
comments

Step By Step Blues Tab

Hi. My name is Trond Vidar Richvoldsen. I've always wondered what Cody in Step by Step
was playing on his gitar when he sang his genious blues;)

 So after a couple of minuts i think i kinda got the idea. I think it sounds kinda cool! 
Its a big possiblitly to improvise here, lay in a couple of high 12's insted of the 00.

[ Tab from: http://www.guitartabs.cc/tabs/m/misc/step_by_step_blues_tab.html ]
      part1         part2                             part3
|-------------||-------------||--------------------------------------------------|
|-------------||-------------||--------------------------------------------------|
|-------------||-------------||--------------------------0-----------------0-----|
|-----0-------||-----0-------||-----0--------------------0-----------------0-----|
|--------3----||--------3----||--------3-------------------3-----------------3---|
|---5--5---5--||---5--5---5--||---5--5---5--5-5-5--5-5--5----5-5-5--5-5--5-----5-|



|-------------||-------------||--------------------------------------------------|
|-------------||-------------||--------------------------------------------------|
|-------------||-------------||--------------------------0-----------------12~~--|
|-----0-------||-----0-------||-----0--------------------0-----------------12~~--|
|--------3----||--------3----||--------3-------------------3-----------------3---|
|---5--5---5--||---5--5---5--||---5--5---5--5-5-5--5-5--5----5-5-5--5-5--5-----5-|


Hope you injoy this riff! 
My name is Trond Vidar, and good luck to you all!
Any questions: t-vida@online.no
Comments