Misc - Starspangled Banner-adams Family Chords & Tabs

 

Starspangled Banner-adams Family Chords & Tabs

Misc Chords & Tabs

Version: 1 Type: Tab 2 ratings
1 star 2 stars 3 stars 4 stars 5 stars
comments

Starspangled Banner-adams Family Tab

   
This is what my guitar is tuned to, I have no idea if its right lol
Star spanged banner

E  5 5 5 6 8 8 6 5 3 3 5 6 6 5 3 1 0-0 1
B--------------------------------------3----1
G----------------------------------------------2
D-------------------------------------------------3
A
E
And the rockets red glare--------------- our flag was still there ( area of song)

Star Wars (dark side thing)

E
B
G
D---------------------3334------4--0
A 0 0 0 – 3 0---3 0  ------4 0---4
E-------1------1-------------


I forget what this is called

E
B
G 7757---------------7757---------------(then 3 frets lower)
D-------765---------------------765------(then 3 frets lower)
A-------------585----------------------585 (then 3 frets lower)
E

Too fast for love

E
B
G 0203040506767 (x2) 
D--------------------------0203040506767 (x2)

Smoke on the water

E
B
G
D
A 5 8 10 5 8 11 10 5 8 10 8 5
E5 8 10 5 8 11 10 5 8 10 8 5


Iron man

Low E 1 4 4 66  8/9\8/9\8\9 6 4 66 1 4 4 4 666 8/9\8/9\8\9 64 11

25 or 6 to 4

low E 55555 33333 22222 111 000
(entire song)

feel good inc

low E 0023 87 55 87 3 0/12
(bass)

wipe out-beach boys not safaris

Low E 0 34555300345553 repeat a lot lol

Austin Powers
E---99 66-----( x4) ---99 699 (x2)  |(back to beginning to finish)
B6---------(x4)------------------------|

James Bond
E|-------------|-----------|----------|----------|
B|--------------|-----------|----------|----------|
G|--------------|-----------|----------|----------|
D|--------------|-----------|----------|----------|
A|2-------3-----|4-----3----|2----3----|4----3----|
E|--------------|-----------|----------|----------|




   
E|------------------------|------------------------|------------------------|
B|------------------------|------------------------|------------------------|
G|------------------------|------------------------|------------------------|
D|------------------------|------------------------|------------------------|
A|------------------------|------------------------|------------------------|
E|0--2--2--2--2--0--0--0--|0--3--3--3--3--2--2--2--|0--2--2--2--2--0--0--0--|





E|-----------------------|------------------------|------------------------|
B|------------------------|------------------------|------------------------|
G|------------------------|------------------------|------------------------|
D|------------------------|------------------------|------------------------|
A|------------------------|------------------------|------------------------|
E|0--3--3--3--3--2--2--2--|0--2--2--2--2--0--0--0--|0--3--3--3--3--2--2--0--|


                                 
                                 

eK-----------------|-----------|
B|------------------|-----------|
G|------------------|-----------|
D|1--0--------------|-----------|
A|------------2--0--|2----------|
E|------------------|-----------|




  
eK------------------|------------|-----------------|----------|
B|--------4--3-------|------------|-----------------|----------|
G|-------------------|------------|-----------------|----------|
D|2--5------------5--|4--5--------|5--4-------2-----|----------|
A|-------------------|------------|--------2-----4--|4---------|
E|-------------------|------------|-----------------|----------|
                                                 ==============





E|--------------------|------------------|-----------|
B|---------4--3--------|------------------|-----------|
G|---------------------|------------------|-----------|
D|2--5--------------5--|4--5--------1--2--|2----------|
A|---------------------|---------2--------|-----------|
E|---------------------|------------------|-----------|
                                       ===============



  
E|--------------------|-------------------|
B|---------------------|-------------------|
G|---------------------|-------------------|
D|---------------------|-------------------|
A|7--7-----7--9--7--9--|10-10--10-9--8--9--|
E|---------------------|-------------------|


                                   

  
E|7--7----7------7--7--|7---------|
B|8--8----7------8--8--|7---------|
G|9--9----8------9--9--|8---------|
D|9--9----9------9--9--|9---------|
A|7--7----9------7--7--|9---------|
E|--------7------------|7---------|




  
E|----------------------|-------------------|------------------|-2-------|
B|----------------------|-------------------|------------4--3--|-2-------|
G|----------------------|----------------3--|2-------2---------|-2-------|
D|--------1--0----------|4--3-------0-------|-----3------------|-1-------|
A|-------------------2--|--------3----------|------------------|-2-------|
E|0--3------------3-----|-------------------|------------------|---------|

Flinstones!!!
E|--------3--0--------|----------------------------|
b|--3-----------3-----|--3--1--0--0--1--3-------0--|
g|-----0-----------0--|-------------------0--2-----|
d|--------------------|----------------------------|
a|--------------------|----------------------------|
e|--------------------|----------------------------|

e|--------3--0--------|-----------------------------|
b|--3-----------3-----|--3--1--0--0--1--3-----------|
g|-----0-----------0--|--------------------0--2--0--|
d|--------------------|-----------------------------|
a|--------------------|-----------------------------|
e|--------------------|-----------------------------|
                                                                              

|e--4-----5--4--4--2--2--4--2--|--2-----3--2--2--0--0--2--0--|
|b-----2-----------------------|-----0-----------------------|
|g-----------------------------|-----------------------------|
d|-----------------------------|-----------------------------|
a|-----------------------------|-----------------------------|
e|-----------------------------|-----------------------------|



e|--------3--0--------|-------------------------|
b|--3-----------3-----|--3--1--0--0--1--3-------|
g|-----0-----------0--|-------------------0—2 0--|
d|--------------------|-------------------------|
a|--------------------|-------------------------|
e|--------------------|-------------------------|
[ Tab from: http://www.guitartabs.cc/tabs/m/misc/starspangled_banner_adams_family_tab.html ]
Hawai Five 0 

E||------------------------|----------------------|-----------------------|---------------------|
B||------------------------|----------------------|-----------------------|---------7--------5--|
G||--------2--6----4-------|--------2--2----------|-----------------2--6--|----4----------------|
D||--4--4---------------4--|--------------4--2----|--4--------4--4--------|---------------------|
A||------------------------|----------------------|-----------------------|---------------------|
E||------------------------|----------------------|-----------------------|---------------------|
                            
-------------------||
--5--2-------7-----||
--------2----------||
-------------------||
-------------------||
-------------------||
The Itchy and Scratchy Show

E-------5---------------5---------0-----0-1-3----------1-6-5-8------
B-1---1-------1---1---1-------1-3-----------------3-1-3-------------
G---2-----------2---2-----------------------------------------------
D-------------------------------------------------------------------
A-------------------------------------------------------------------
E-------------------------------------------------------------------	

Looney toons!
e-0-----------0-----0------------------------------------------------
b----3--1--3-----4-----1--3-3-3-3----3--1--0--1--3--2--3--0--1-1-1-1-
g--------------------------------------------------------------------

d-------------------------------------------------------
a-------------------5-5-5-5---------------------7-7-7-7-
e-3/5\3/5\3-------------------3/5\3/5\33---------

e-12--------------12------12--------------------------------10--12--15-
b-----15--13--15------16------13--15-15-15-15----10--9--10-------------
g----------------------------------------------------------------------		

meow mix!
|-----------------------------------------|
|-----------------------------------------|
|-----------------------------------------|
|-----------------------------------------|
|-----5-4-2-0-----------------------------|
|-----------------------------------------|
    I want chicken
|-----------------------------------------|
|-----------------------------------------|
|-----------------------------------------|
|-----------------------------------------|
|-----5-4-2-0-----------------------------|
|-----------------------------------------|
    I want liver
|-----------------------------------------|
|-----------------------------------------|
|-----------------------------------------|
|-----------------------------------------|
|-----5-4-5-6-7-4-2-0---------------------|
|-----------------------------------------|
    Meow mix, meow mix, please deliver

Pink panther
------------------------------------------------------------------------------
------------------------------------------------------------------------------
-------------------------5--4--------4--3--2--0-------------------------------
-1--2--4--5--1--2--4--5--------2--5--------------2--0--2----------------------
------------------------------------------------------------------------------
------------------------------------------------------------------------------

simpsons
|---0-2-5-3-0-----------------------------------|
|-1-----------1---------------------------------|
|---------------2-------0----------0-4-4-4-5----|
|-----------------4-4-4---4-4-4-4---------------|
|-----------------------------------------------|
|-----------------------------------------------|

adams family *=snap
------------------------------------------------------------------------------
------------------------------------------------------------------------------
------------------------------------------------------------------------------
----------------------------0--*--*-----------0-----------0-------------------
----0--2--3--*--*--0--2--4-----------0--2--4-----0--2--4--------0--2--3--*----
-3-----------------------------------------------------------3----------------
                                                                              

------------------------------------------------------------------------------
------------------------------------------------------------------------------
------------------------------------------------------------------------------
-------------------------------0--*--*-----------0-----------0----------------
-*-----0--2--3--*--*--0--2--4-----------0--2--4-----0--2--4--------0--2--3----
----3-----------------------------------------------------------3-------------
                                                                              

-------------0-----------------------------------------0----------------------
----------1-----1--------3-----0--3--0--------1-----1-----1--------3--1--0----
-------0-----------2--------3-----------0--------0-----------2----------------
----------------------3--------------------2--------------------3-------------
-*--*-------------------------------------------------------------------------
------------------------------------------------------------------------------
                                                                              

-------------------0-----------------------------------------0----------------
-------0--1-----1-----1--------3-----0--3--0--------1-----1-----1--------3----
-0--2--------0-----------2--------3-----------0--------0-----------2----------
----------------------------3--------------------2--------------------3-------
------------------------------------------------------------------------------
------------------------------------------------------------------------------
                                                                              

------------------------------------------------------------------------------
-1--0--------0--1-------------------------------------------------------------
-------0--2-------------------------------------------------------------------
------------------------------------------------------------------------------
------------------------------------------------------------------------------
------------------------------------------------------------------------------

These are all I can remember for now, but I got to go, lots of stuff to do today
Email me with ur issues or w/e E_Is_728@yahoo.com
--chris
Comments