Misc - Star Spangled Banner Chords & Tabs

 

Star Spangled Banner Chords & Tabs

Misc Chords & Tabs

Version: 7 Type: Tab 2 ratings
1 star 2 stars 3 stars 4 stars 5 stars
comments

Star Spangled Banner Tab

tabed by jason e

star spangled banner short and simple way

-----------0-4-2-0----------------------5-4-2-4-5-5
-0-------0-----------------5-5-4-2-4-5-5-----------
---1---1-----------1-2-3-4-------------------------
-----2---------------------------------------------
---------------------------------------------------
---------------------------------------------------
[ Tab from: http://www.guitartabs.cc/tabs/m/misc/star_spangled_banner_tab_ver_7.html ]
---------------------------------------------------
-5-7-9-10----------------------5-4-2-4-5-5---------
----------4-5-6-7-9-10-9-7-5-4-------------5-4-2-4-
---------------------------------------------------
---------------------------------------------------
---------------------------------------------------

-------5-4-2-4-5-5-5-----2-4-5-5-4-2-4-5-0---------
---------------------5-4-2-4-5-5-4-2-4-5-0---------
-5-5-----------------------------------------------
---------------------------------------------------
---------------------------------------------------
---------------------------------------------------

not realy lik the origonal but add distotion and it's awsome but simple
Comments