Misc - Star Spangled Banner Chords & Tabs

 

Star Spangled Banner Chords & Tabs

Misc Chords & Tabs

Version: 6 Type: Tab 4 ratings
1 star 2 stars 3 stars 4 stars 5 stars
comments

Star Spangled Banner Tab

THE STAR SPANGLED BANNER (All Verses)
RE-WRITTEN BY: Blue-Demon
This is my first tab and i made sure to include all the verses so it dosn't skip around. Im pretty sure its accurate and I hope you all ike it


E|-------------------------------0------------------------------------------0----------------------------------------------------------------
B|---------------------1------------3--1------------------------------------------3--1--0------------------------0--1--1--------------- 
G|----0------------0---------------------------------0------0--0---------------------------------2--------------------------------------
D|------2-------2---------------------------2--4-------------------------------------------------------------------------------------------
A|--------3----------------------------------------------------------------------------------------------------------------------------------

E|--------------------------------------------------------------------------------------------------------------------------------------------




E|-------------------------------------------------------------------------------------------------------------------------------------------
B|--------------------------------------------1---5---3---1--------------------------------5--3--1--0----------------------------------
G|---------0------------0----------------0-----------------------------------------------------------------------2--4--5--5-------------
D|--------------2------------2--------2---------------------------2--4--5------5---5-----------------------------------------5--2-----
A|------------------3-----------3-------------------------------------------------------------------------------------------------------3---
E|--------------------------------------------------------------------------------------------------------------------------------------------



[ Tab from: http://www.guitartabs.cc/tabs/m/misc/star_spangled_banner_tab_ver_6.html ]
E|----0--0--0-----1----3--3----1--0----------0--1--1------------1--0-----------------------------------------------------------------
B|-------------------------------------------3------------------------------------3---1---0--------------0--1--1-------------------------
G|------------------------------------------------------------------------------------------------------2------------------------0-----------
D|-------------------------------------------------------------------------------------------------------------------------2-4---------------
A|--------------------------------------------------------------------------------------------------------------------------------------------
E|--------------------------------------------------------------------------------------------------------------------------------------------




E|--------------------------------------------------------------------0-1-0----------------------------------------------0--1--3-----------
B|-----------1--1-----------1--0-------------------3---------------------------3-1-1-------0---------------1-----3---------------------
G|------0-------------------------------2--2--2----------------------------------------------------------0--------------------------------
D|---------------------------------------------------------------------------------------------------------------------------------------------
A|---------------------------------------------------------------------------------------------------------------------------------------------
E|---------------------------------------------------------------------------------------------------------------------------------------------



E|-----------------------0----1---------------------------------------------------------------------------------------------------------------
B|----------1--3---------------------3-------1----------------------------------------------------------------------------------------------
G|----------------------------------------------------------------------------------------------------------------------------------------------
D|----------------------------------------------------------------------------------------------------------------------------------------------
A|----------------------------------------------------------------------------------------------------------------------------------------------
E|----------------------------------------------------------------------------------------------------------------------------------------------
Comments