Misc - Star Spangled Banner Chords & Tabs

 

Star Spangled Banner Chords & Tabs

Misc Chords & Tabs

Version: 5 Type: Tab 1 rating
1 star 2 stars 3 stars 4 stars 5 stars
comments

Star Spangled Banner Tab

This is the National Anthem, it sounds pretty close to what it should
should be so just see how you like it.




E-----------------------|--12--10------------------------------
B-------------------13--|----------13--------------------------
G--12--9--5--9--12------|--------------9--11--12---------------
D-----------------------|--------------------------------------
A-----------------------|--------------------------------------
E-----------------------|--------------------------------------


E----------12--10----------------------------------------------
B------------------13--12--10--12--13--13----------------------
G--12--12----------------------------------12--9--5------------
D--------------------------------------------------------------
A--------------------------------------------------------------
E--------------------------------------------------------------

[ Tab from: http://www.guitartabs.cc/tabs/m/misc/star_spangled_banner_tab_ver_5.html ]
E--12--12-12--13--15--15---13--12--10--12--13--13--------------
B--------------------------------------------------------------
G--------------------------------------------------------------
D--------------------------------------------------------------
A--------------------------------------------------------------
E--------------------------------------------------------------


E--13--12--10--------------------------------------------------
B--------------13--12--10--12--13------------------------------
G----------------------------------9--11--12-------------------
D--------------------------------------------------------------
A--------------------------------------------------------------
E--------------------------------------------------------------


E----------------------------------------13--12--10------------
B------13--13---13--12--10--10--10---13--------------13--13--12
G--12----------------------------------------------------------
D--------------------------------------------------------------
A--------------------------------------------------------------
E--------------------------------------------------------------


E--------------10--12--13--15-------10--12--13--10-------------
B----------13-------------------13------------------13---------
G--12--12------------------------------------------------------
D--------------------------------------------------------------
A--------------------------------------------------------------
E--------------------------------------------------------------



Thanks Casey

	Casey2686@aol.com
Comments