Misc - Star Spangled Banner Chords & Tabs

 

Star Spangled Banner Chords & Tabs

Misc Chords & Tabs

Version: 4 Type: Tab 3 ratings
1 star 2 stars 3 stars 4 stars 5 stars
comments

Star Spangled Banner Tab



	This is one of the ways to play the star spangled banner. Have fun...


Opening 
E-----------------------------------------------------
B---------------------13------------------------------
G---12--9------9--12----------------------------------
D----------10-----------------------------------------
A-----------------------------------------------------
E-----------------------------------------------------


E---12--10--------------------------------------------
B-----------13----------------------------------------
G---------------9--11--12-----------------------------
D-----------------------------------------------------
A-----------------------------------------------------
E-----------------------------------------------------


E-----------12--10------------------------------------
B-------------------13--12--10--12--13--13--12--9-----
G---12--12-----------------------------------------10-
D-----------------------------------------------------
A-----------------------------------------------------
E-----------------------------------------------------


PLAY ALL OF THAT TWICE

[ Tab from: http://www.guitartabs.cc/tabs/m/misc/star_spangled_banner_tab_ver_4.html ]
E---12--12--12--13--15--15---13--12--10--12--13-------
B-----------------------------------------------------
G-----------------------------------------------------
D-----------------------------------------------------
A-----------------------------------------------------
E-----------------------------------------------------


E---13--12--10----------------------------------------
B---------------13--12--10--12--13--------------------
G-----------------------------------9--11--12---------
D-----------------------------------------------------
A-----------------------------------------------------
E-----------------------------------------------------


E-----------------------------------------------------
B-------13--13--13--12--10--10--10--------------------
G---12------------------------------------------------
D-----------------------------------------------------
A-----------------------------------------------------
E-----------------------------------------------------


E-------10--12--13--12--10----------------------------
B---13----------------------13--13--12----------------
G-----------------------------------------------------
D-----------------------------------------------------
A-----------------------------------------------------
E-----------------------------------------------------


E---------------10--12--13--15------10--12--13--10----
B-----------13------------------13------------------13
G---12--12--------------------------------------------
D-----------------------------------------------------
A-----------------------------------------------------
E-----------------------------------------------------


If you want to make it sound a little better just add some 
slides here and there.

later...   casey
Comments