Misc - Speed Practice Chords & Tabs

 

Speed Practice Chords & Tabs

Misc Chords & Tabs

Version: 1 Type: Tab 0 ratings
1 star 2 stars 3 stars 4 stars 5 stars
comments

Speed Practice Tab

E||--------------------------|--------------------------|
B||--------------------------|--------------------------|
G||--------------------------|--------------5--6--7--8--|
D||--------------------------|--5--6--7--8--------------|
A||--------------5--6--7--8--|--------------------------|
E||--5--6--7--8--------------|--------------------------|


                                                         
---------------------------|---------------7--8--9--10--|
---------------------------|--7--8--9--10---------------|
--9--8--7--6--7--8--9--10--|----------------------------|
---------------------------|----------------------------|
---------------------------|----------------------------|
---------------------------|----------------------------|


                                                              
--11--10--9--8----------------|------------------------------|
----------------11--10--9--8--|------------------------------|
------------------------------|--11--10--9--8----------------|
------------------------------|----------------11--10--9--8--|
------------------------------|------------------------------|
------------------------------|------------------------------|


                                                       
---------------------------|--------------------------|
---------------------------|--------------------------|
---------------------------|--------------------------|
--7--8--9--10--9--8--7--6--|--------------------------|
---------------------------|--9--8--7--6--------------|
---------------------------|--------------9--8--7--6--|


                                                      
--------------------------|--------------------------|
--------------------------|--------------------------|
--------------------------|--------------5--6--7--8--|
--------------------------|--5--6--7--8--------------|
--------------5--6--7--8--|--------------------------|
--5--6--7--8--------------|--------------------------|


                                                         
---------------------------|---------------7--8--9--10--|
---------------------------|--7--8--9--10---------------|
--9--8--7--6--7--8--9--10--|----------------------------|
---------------------------|----------------------------|
---------------------------|----------------------------|
---------------------------|----------------------------|


                                                              
--11--10--9--8----------------|------------------------------|
----------------11--10--9--8--|------------------------------|
------------------------------|--11--10--9--8----------------|
------------------------------|----------------11--10--9--8--|
------------------------------|------------------------------|
------------------------------|------------------------------|


                                                       
---------------------------|--------------------------|
---------------------------|--------------------------|
---------------------------|--------------------------|
--7--8--9--10--9--8--7--6--|--------------------------|
---------------------------|--9--8--7--6--------------|
---------------------------|--------------9--8--7--6--|


                                                      
--------------------------|--------------------------|
--------------------------|--------------------------|
--------------------------|--------------5--6--7--8--|
--------------------------|--5--6--7--8--------------|
--------------5--6--7--8--|--------------------------|
--5--6--7--8--------------|--------------------------|


                                                         
---------------------------|---------------7--8--9--10--|
---------------------------|--7--8--9--10---------------|
--9--8--7--6--7--8--9--10--|----------------------------|
---------------------------|----------------------------|
---------------------------|----------------------------|
---------------------------|----------------------------|

[ Tab from: http://www.guitartabs.cc/tabs/m/misc/speed_practice_tab.html ]
                                                              
--11--10--9--8----------------|------------------------------|
----------------11--10--9--8--|------------------------------|
------------------------------|--11--10--9--8----------------|
------------------------------|----------------11--10--9--8--|
------------------------------|------------------------------|
------------------------------|------------------------------|


                                                                           
---------------------------|--------------------------|-------------------|
---------------------------|--------------------------|-------------------|
---------------------------|--------------------------|--7----------------|
--7--8--9--10--9--8--7--6--|--------------------------|--8----------------|
---------------------------|--9--8--7--6--------------|--8----------------|
---------------------------|--------------9--8--7--6--|--6----------------|


                                                                         
----------------------------------|----------------------------7-8-9-10-|
----------------------------------|-------------------7-8-9-10----------|
--------------------------5-6-7-8-|--9-8-7-6-7-8-9-10-------------------|
------------------5-6-7-8---------|-------------------------------------|
----------5-6-7-8-----------------|-------------------------------------|
--5-6-7-8-------------------------|-------------------------------------|


                                           
--11-10-9-8-------------------------------|
------------11-10-9-8---------------------|
----------------------11-10-9-8-----------|
--------------------------------11-10-9-8-|
------------------------------------------|
------------------------------------------|


                                                                       
-----------------------------------|----------------------------------|
-----------------------------------|----------------------------------|
-----------------------------------|--------------------------5-6-7-8-|
--7-8-9-10-9-8-7-6-----------------|------------------5-6-7-8---------|
-------------------9-8-7-6---------|----------5-6-7-8-----------------|
---------------------------9-8-7-6-|--5-6-7-8-------------------------|


                                      
----------------------------7-8-9-10-|
-------------------7-8-9-10----------|
--9-8-7-6-7-8-9-10-------------------|
-------------------------------------|
-------------------------------------|
-------------------------------------|


                                           
--11-10-9-8-------------------------------|
------------11-10-9-8---------------------|
----------------------11-10-9-8-----------|
--------------------------------11-10-9-8-|
------------------------------------------|
------------------------------------------|


                                                                       
-----------------------------------|----------------------------------|
-----------------------------------|----------------------------------|
-----------------------------------|--------------------------5-6-7-8-|
--7-8-9-10-9-8-7-6-----------------|------------------5-6-7-8---------|
-------------------9-8-7-6---------|----------5-6-7-8-----------------|
---------------------------9-8-7-6-|--5-6-7-8-------------------------|


                                      
----------------------------7-8-9-10-|
-------------------7-8-9-10----------|
--9-8-7-6-7-8-9-10-------------------|
-------------------------------------|
-------------------------------------|
-------------------------------------|


                                           
--11-10-9-8-------------------------------|
------------11-10-9-8---------------------|
----------------------11-10-9-8-----------|
--------------------------------11-10-9-8-|
------------------------------------------|
------------------------------------------|


                                                                           
-----------------------------------|-------------------|
-----------------------------------|-------------------|
-----------------------------------|--7----------------|
--7-8-9-10-9-8-7-6-----------------|--8----------------|
-------------------9-8-7-6---------|--8----------------|
---------------------------9-8-7-6-|--6----------------|
Comments