Misc - Speed Helping Scale Chords & Tabs

 

Speed Helping Scale Chords & Tabs

Misc Chords & Tabs

Version: 1 Type: Tab 1 rating
1 star 2 stars 3 stars 4 stars 5 stars
comments

Speed Helping Scale Tab

   
E|-------------------------------------15-16-18-16-15------------------------------------|
G|----------------------------15-16-18----------------18-16-15---------------------------|
B|----------------------15-17----------------------------------17-15---------------------|
D|-------------15-17-18----------------------------------------------18-17-15------------|
A|----15-17-18----------------------------------------------------------------18-17-15---|
E|---------------------------------------------------------------------------------------|

this should help you with your picking speed, my guitar teacher showed me it and it works
[ Tab from: http://www.guitartabs.cc/tabs/m/misc/speed_helping_scale_tab.html ]
1. try it slowly at first to get used to it
2. speed up more and more as you get better at it
3. to really get good at it, instead of just down picking, switch off picking up and down such as:
E|-------------------------------------15-16-18-16-15------------------------------------|
G|----------------------------15-16-18----------------18-16-15---------------------------|
B|----------------------15-17----------------------------------17-15---------------------|
D|-------------15-17-18----------------------------------------------18-17-15------------|
A|----15-17-18----------------------------------------------------------------18-17-15---|
E|---------------------------------------------------------------------------------------|
      d  u  d  u  d  u  d  u  d  u  d   u  d  u  d  u  d  u  d  u  d  u  d  u  d  u  d

d= down pick
u= up pick
Comments