Misc - Spain Untitled Chords & Tabs

 

Spain Untitled Chords & Tabs

Misc Chords & Tabs

Version: 1 Type: Tab 0 ratings
1 star 2 stars 3 stars 4 stars 5 stars
comments

Spain Untitled Tab

Artist : Spain
Album : The blue moods of Spain
Song : Untitled #1
Tabbed by Jo

These are the 2 solos of this wonderful song. The chords can easily be found, as well as the main riff in the intro and throughout the song.

Symbols:
“_” means slide (up or down, whatever...)
“h” means Hammer-on
“p” means Pull off
“u” means bend Up one full tone
“hu” means bend Up a Half tone
“qu” means bend U a Quarter tone
“d” means bend down to unaltered tone
“^^^” means let ring
Besides, I tried to use the distance between the figures to represent the speed, but it doesn’t work that good. Listen to the CD to get the rythm right.

Solo 1
e-------------------------------------------------------------------------------------------------------
B-------------------------------------------------------------------------------9—11^^^^---------
G-------------------------------6-6----------------6--------------6---8_10--------------------------
D-6_8---6_8--6----6--8---8------8-------6--8-----8---6---8-----------------------------------------
A-----------------8-----------------------8------------------------------------------------------------
E-------------------------------------------------------------------------------------------------------

e--------------9------9-------9h11p9--------------9-----------------------------------
B-9h11-11-11-11-11-11-11-------------9_11-----11--9-----9------------------------
G----------------------------------------8--8_10-------------10----10h8p10-----------
D------------------------------------------------------------------------------------------------
A------------------------------------------------------------------------------------------------
E-------------------------------------------------------------------------------------------------

e--------------------------------------------------------------------------------------------------
B---------------------------------------------------------------9--9--9----9---9--7--6-----
G--8h6p8--6--5h6p5---------------6--8—8p6---8_10--10-10-10--10-10--8--6-----
D-------------------------_8--8h10----------------------------------------------------------
A-----------------------------------------------------------------------------------------------------------
E-----------------------------------------------------------------------------------------------------------

e----------------------------------------------------------------------------------------------------
B---------------------------------------------------------------------------------------------------
G------------------------------------------------------------------------------------6^^^^---
D-6_8--6_8---6--------------------------------------------------------------6-8---
A------------------8--8p6_4---6p4-----------4-------------4-4-6p4--6_8-----------------
E---------------------------------------6--4h6----6^^^--4-6----------------------------------



e------------------9-----------------------------------------------------------------------------
B----------------------------------6-8-6--------------------------------------------------------
G-----6--8—8u^^^--8-6---6---6-8-6--------------------------------------------6-8p6-8hud-6-
D--8------------------------8--8---------8p6h8-6_8-6--------------6--6_8-8--8---------------
A----------------------------------------------------------8-6-6_8-8---8--------------------------
E----------------------------------------------------------------------------------------------------------

e----------------------------------------------------------------------------------------------------------------
B---8--6-----------6-------6-------6^^^^-------9-9--------------9-9----------8--6------------------------
G-8------8---6_8-8--6----8--6-8------------8u^^^-d8-6—8u^^^^--8--6---8--6---------6---------
D------------------------8---------------------------------------------------------------8--6-8-----8p6h8-
A---------------------------------------------------------------------------------------------------------------
E---------------------------------------------------------------------------------------------------------------
[ Tab from: http://www.guitartabs.cc/tabs/m/misc/spain_untitled_tab.html ]
e---------------------------------9-----9---9_11-11--11u--d11-9--------------------------------------
B----------------------9---9_11--11---11--------------------------11-11p9h11_(14)_11-11p9h11^^^
G--------6-8-6-8_10--10---------------------------------------------------------------------------------
D-8-6-8------------------------------------------------------------------------------------------------
A---------------------------------------------------------------------------------------------------------------
E---------------------------------------------------------------------------------------------------------------

Solo 2
e---------------------------------------------------------6-------------------------------------------
B---8hud-_6---------------------------------------------------------------6----6--8_6-------------------
G---8hud-_6--------------6-6h8p6---8p6--6—8hu^^^--8-8hud-6---6----6--8_6-------6----------
D--------------8—8p6h8-------------------8---------------------------8----8----------8p6h8--------
A---------------------------------------------------------------------------------------------------------------
E---------------------------------------------------------------------------------------------------------------

e------------------------------------------------------------------------------------------------6--------
B--------------------------------------------------------------------------------9---7--7--6--6--------
G------------------------------------------------------------6--6-8-6-8_10--10--8--8--6--6-------------
D-8-8p6------------------------------------------------6-8--8--------------------------------------------
A---------8-6-6p4-----------------------4-4-6-4-6_8-------------------------------------------------------
E--------------------6p4h6^^^^----4h6------------------------------------------------------------------

e--8-8p6----_11—11p9------------------------------------------------------------------------------------
B-6----------_9-----------------8hu-d8--6--8-6----------------8hu-d8-6--8-6--8-6-------------------
G-6----------_10---------------8hu-d8--6--8-6---------8-6---8hu-d8-6--8-6--8-6--------------------
D---------------------------------------------------8p6h8-------------------------8------8---6_8----------
A---------------------------------------------------------------------------------------------8----------
E---------------------------------------------------------------------------------------------------------------

e-----------------------------------------------------------------9---9-11hu-11qu-11hud-9h11-------9
B----------------------------------------6-9p6-9_11^^^^--11-11--------------------------------9_11^^--
G------------------------------------6-8----------------------------------------------------------------------
D-6--6_8---8-6_8-6------6---6-8----------------------------------------------------------------------
A---8------------------6h8---8--------------------------------------------------------------------------
E-------------------------------------------------------------------------------------------------

e-----9----8_9----------9----8----6----------------------------------------------------------------------
B-11----10_11---_11-11---8----6----------------------------------9-9--------11---------------------
G------------------_10--10---8----6-----------------6-8p6-8_10-----10---10^^--10--8--6--------
D----------------------------------------8p6h8------8--------------------------------------------8-
A---------------------------------------------------------------------------------------------------------------
E---------------------------------------------------------------------------------------------------------------

e----------------------------------------------------------------------------------------------------------------
B--8--6------------------------------------------------------------------------------------------
G--8--6---------------------------------------------------------------------------------------------------
D--------8--6—6_8------------------------------------------------------------------------------------
A---------------------------------------------------------------------------------------------------------------
E---------------------------------------------------------------------------------------------------------------



Any suggestions or comments : jean-olivier.grall@club-internet.fr
Comments