Misc - Song I Made Up Chords & Tabs

 

Song I Made Up Chords & Tabs

Misc Chords & Tabs

Version: 1 Type: Tab 2 ratings
1 star 2 stars 3 stars 4 stars 5 stars
comments

Song I Made Up Tab

   

Dave's Song 2





This is just a song I made up when I was bored.  Pretty much for the chorus, make up a rhythm.
I have one that i use, but it it would be too hard to try and show it on here.

Verse         G
e------------------------------------3------------------------------------------------
B--------------3-----------3-----------3----------------------------------------------
G----------------------------------------0--------------------------------------------
D---------0----------0---------0------------------------------------------------------
A-------------------------------------------------------------------------------------
E-----3-------------------------------------------------------------------------------


          C7
e--------------------------------3----------------------------------------------------
B-------------3--------3------------3-------------------------------------------------
G-------------------------------------0-----------------------------------------------
D---------2--------2--------2---------------------------------------------------------
A------3------------------------------------------------------------------------------
E-------------------------------------------------------------------------------------


   D
e-----------------------------------2--------------------------------------------------
B--------------3----------3------------3-----------------------------------------------
G---------2-------------------------------2--------------------------------------------
D-----0------------0----------0--------------------------------------------------------
A--------------------------------------------------------------------------------------
E--------------------------------------------------------------------------------------

[ Tab from: http://www.guitartabs.cc/tabs/m/misc/song_i_made_up_tab.html ]
    C
e--------------------------------------0-----------------------------------------------
B------------------1---------1-----------1---------------------------------------------
G-------------------------------------------0------------------------------------------
D------------2----------2--------2-----------------------------------------------------
A--------3-----------------------------------------------------------------------------
E--------------------------------------------------------------------------------------




Chorus
These are just the chords, not the strumming pattern.  
You will have to figure that out for yourself.(You actually use the same 4 chords as the verse!)

     G                C7           D          C
e----3----------------3------------2----------0-----------------------------------------
B----3----------------3------------3----------1-----------------------------------------
G----0----------------0------------2----------0-----------------------------------------
D----0----------------2------------0----------2-----------------------------------------
A----2----------------3------------x----------3-----------------------------------------
E----3----------------x------------x----------x-----------------------------------------





Solo(This is basically just basically improvising on a G scale!)
e--------------------------------------------------------------------7-----10--10b-7-----
B------------------------------------------------8--10b--8-----10------------------------
G----------------------------------------------------------------------------------------
D------------5----7/9----------------5----7/9--------------------------------------------
A------5--7-----------------5--7---------------------------------------------------------
E----------------------------------------------------------------------------------------




e----7h10p-------------------------------------------------------------------------------
B--------------10---8--10b10-10-10r-8----------------------------------------------------
G------------------------------------------9--7------------------------------------------
D------------------------------------------------9--7--9p-7/5------5-7-5-----------------
A--------------------------------------------------------------------------7--5--7-------
E----------------------------------------------------------------------------------------
what the symbols mean:
/=slide
b=bend
r-release bend
p=pull off
h=hammer on






Comments