Misc - Slap Bass Grooves Chords & Tabs

 

Slap Bass Grooves Chords & Tabs

Misc Chords & Tabs

Version: 1 Type: Bass Tab 0 ratings
1 star 2 stars 3 stars 4 stars 5 stars
comments

Slap Bass Grooves Bass Tab

   
Funk Slap Bass Grooves
Tabbed by randombass

 Tab Key
  h   hammer on
  p   pull off
  ^   bend
  /   slide up
     slide down
 ( )  muted slap/pop
  x   muted string slap/pop 
   *These are some great slap bass grooves, taken from the Hal 
Leonard Slap Bass DVD by Ed Friedland.*

 Groove #1
G----------------------------6h7---------7h9----------
D---2---5---7----------5h6---------7h9----------------
A----------------5h7----------------------------------
E-0---3---5---5h7----0-----0-----0-----0-------------- repeat as much
                                                        as you like
                                                        (end on an E)  
Groove #2
G----------------------------6h7-----------7h9--------
D-----2-----5----------5h6----------------------------
A----------------5h7----------------------------------
E-0-0---0-3---5h7----0-----0-----0-(pause)------------
[ Tab from: http://www.guitartabs.cc/tabs/m/misc/slap_bass_grooves_btab.html ]
G-----------------------------------------------------
D------2-----5---------5h6----------------------------
A-----------------55h77---7-55------------------------
E-0-00---0-3---5h7-------------7p5--3^4--------------- repeat as much 
                                                        as you like
                                                        (end on an E)
Groove #3
G------------0-0---------7h9------------0-------------
D----2-----5--------------------2-----5---------------
A----------------55h7---------------------------------
E-00---0-3------------00-----00---0-3-----10--------- repeat as much
                                                        as you like

Groove #4
G-----------------------------------------------------
D---------------------5h7---------------x----x--------
A-----------------------------------------------------
E-5-5-(5)-5-(5)-5-(5)-----(5)-5-(5)-5-x---xx---0--3--- repeat as much
                                                        as you like
                                                       (end on a 5)
 
Comments