Misc - Simpsons Theme Chords & Tabs

 

Simpsons Theme Chords & Tabs

Misc Chords & Tabs

Version: 1 Type: Bass Tab 0 ratings
1 star 2 stars 3 stars 4 stars 5 stars
comments

Simpsons Theme Bass Tab

Tabbed By : Nofxkid
e-mail: Nofxkid69@hotmail.com

G|---------------2--0--------------------------------------------------------|
D|---------2--4--------2-----------------------------------------------------|
A|------3-----------------3--10001--10001------------------------------------|
E|---------------------------------------------------------------------------|
[ Tab from: http://www.guitartabs.cc/tabs/m/misc/simpsons_theme_btab.html ]
G|---------------2--0--------------------------------------------------------|
D|---------2--4--------2-----------------------------------------------------|
A|------3-----------------3--10001--10001--1113------------------------------|
E|---------------------------------------------------------------------------|

==============================================================================
Comments