Misc - Silentnight Chords & Tabs

 

Silentnight Chords & Tabs

Misc Chords & Tabs

Version: 1 Type: Tab 3 ratings
1 star 2 stars 3 stars 4 stars 5 stars
comments

Silentnight Tab

Silent Night
the one i found was wrong so i fixed it....little better i guess.




|---------------------------------------------------------------------------|
|---------------------------------------------------------------------------|
|---------------------------------------------------------------------------|
|-----------------------------------3---3---0---1---1-----------------------|
|---1---3---1-------1---3---1---------------------------1-------------------|
|---------------3---------------3-------------------------------------------|

[ Tab from: http://www.guitartabs.cc/tabs/m/misc/silentnight_tab.html ]
|---------------------------------------------------------------------------|
|---------------------------------------------------------------------------|
|---------------------------------------------------------------------------|
|-----------1---0-------------------------------1---0-----------------------|
|---3---3-----------3---1---3---1-------3---3-----------3---1---3---1-------|
|-----------------------------------3-----------------------------------3---|    

|---------------------------------------------------------------------------|
|---------------------------------------------------------------------------|
|-----------1---------------------------------------------------------------|
|---3---3-------3---0---1---5---1---------------0---3-----------------------|
|-----------------------------------1-------1-----------1(hold)-------------|
|---------------------------------------3-----------------------------------|
Comments