Misc - Silent Night Chords & Tabs

 

Silent Night Chords & Tabs

Misc Chords & Tabs

Version: 1 Type: Bass Tab 0 ratings
1 star 2 stars 3 stars 4 stars 5 stars
comments

Silent Night Bass Tab

Song: Silent Night
Artist: miscellaneous


G----------------------7-7-4----5-5-0----|
D--5-7p5------5-7p5----------------------|
A--------7----------7--------------------|
E----------------------------------------|
[ Tab from: http://www.guitartabs.cc/tabs/m/misc/silent_night_btab.html ]
G------------------------------------------------|
D--7-7-10-9p7\5-5--7p5-----7-7-10-9p7\5-5--7p5---|
A----------------------7-----------------------7-|
E------------------------------------------------|

G--7-7-10-9p7\5---9----5-------------------|
D------------------------5-----------------|
A--------------------------7/10-10--7------|
E-------------------------------------10-8-|


kevin harrelson
jack___straw@hotmail.com
Comments