Misc - Scales Aplenty Chords & Tabs

 

Scales Aplenty Chords & Tabs

Misc Chords & Tabs

Version: 1 Type: Tab 0 ratings
1 star 2 stars 3 stars 4 stars 5 stars
comments

Scales Aplenty Tab

Tabbed by me: Josh Green and a help from a few others. pudgeyjake@aol.com RATE IT!

-----------------------------3-5-3------------------------------------
---------------------2-3-5-6-------6-5-3-2----------------------------
-----------------2-4-----------------------4-2------------------------
-----------2-3-5-------------------------------5-3-2------------------
-----2-4-5-------------------------------------------5-4-2------------
--5--------------------------------------------------------5----------



------------------------------5---------------------------------------
------------------------5-6-7---7-6-5---------------------------------
------------------4-6-7---------------7-6-4---------------------------
--------------5-7---------------------------7-5-----------------------
------4-5-7-8-----------------------------------8-7-5-4---------------
--5-7---------------------------------------------------7-5----------- 



-----------------------------------9-10-12-------
-----------------------------10-12---------------
---------------------9-10-12---------------------
-------------9-10-12-----------------------------
-----9-11-12-------------------------------------
--12---------------------------------------------


----------------------------------12-13-15---------
-------------------------12-14-15------------------
-------------------12-14---------------------------
-------11-12-14-15---------------------------------
-12-14---------------------------------------------
--------------------------------------------------


-----------------------------0-1-3-|-3-1-0--------------------------
-----------------------0-1-3-------|-------3-1-0--------------------
-------------------0-2-------------|-------------2-0----------------
-------------0-2-3-----------------|-----------------3-2-0----------
-------0-2-3-----------------------|-----------------------3-2-0----
-0-1-3-----------------------------|-----------------------------3-1-0


e-13-12-10-----------------------------------------------
 b----------13-12-10/9------------------------------------
 g----------------------10-9-7----------------------------
 d------------------------------10-9-7/6------------------
 a----------------------------------------8-7------------- 
 E--------------------------------------------------------    

[ Tab from: http://www.guitartabs.cc/tabs/m/misc/scales_aplenty_tab.html ]
E-------------------------------0-3-------------
B-------------------------1-3-------------------
G-------------------0-2-------------------------
D-------------0-2-------------------------------
A-------0-3-------------------------------------
E-0-3-------------------------------------------

E------------------------------------------0-0-3
B---------------------------------1-1-3-1-3-3---
G------------------------0-0-2-0-2-2------------
D---------------0-0-2-0-2-2---------------------
A-----0--0-3-0-3-3------------------------------
E-0-3--3----------------------------------------

E-------------------------------3-5-------------
B-------------------------3-5-------------------
G-------------------2-5-------------------------
D-------------2-5-------------------------------
A-------3-5-------------------------------------
E-3-5-------------------------------------------

E----------------------------------------3-3-5--
B-------------------------------3-3-5-3-5-5-----
G----------------------2-2-5-2-5-5--------------
D-------------2-2-5-2-5-5-----------------------
A----3-3-5-3-5-5--------------------------------
E-3-5-5-----------------------------------------

E-------------------------------5-8-------------
B-------------------------5-8-------------------
G-------------------5-7-------------------------
D-------------5-7-------------------------------
A-------5-7-------------------------------------
E-5-8-------------------------------------------

E----------------------------------------5-5-8--
B-------------------------------5-5-8-5-8-8-----
G----------------------5-5-7-5-7-7--------------
D-------------5-5-7-5-7-7-----------------------
A----5-5-7-5-7-7--------------------------------
E-5-8-8-----------------------------------------


-------------------------2-3-5-3-2----------------------------
----------------------4-5-----------5-4------------------------
----------------2-4-5-------------------5-4-2------------------
--------1-2-4-5-------------------------------5-4-2-1----------
----2-3-----------------------------------------------3-2------
--5-------------------------------------------------------5----

--------------------------------11-12-14-15------------------
--------------------------12-13------------------------------
-----------------11-12-14------------------------------------
-----------13-14---------------------------------------------
--12-14-15---------------------------------------------------
-------------------------------------------------------------


-----------------------------5-7-8-------
---------------------4-5-7-8-------------
------------------45---------------------
------------4-5-7------------------------
--------6-7------------------------------
--5-7-8----------------------------------

Comments