Misc - Sailor Song Chords & Tabs

 

Sailor Song Chords & Tabs

Misc Chords & Tabs

Version: 1 Type: Tab 0 ratings
1 star 2 stars 3 stars 4 stars 5 stars
comments

Sailor Song Tab

Tabbed by Spencer Toledo   
Sailor Song

e-12----------------------------------12--12-----11--12--14------------------14--12--11--14-------------
B-----------------12--10--9--12-------------------------------------------------------------------------12--12
G--------9--9---------------------------------------------------------11--11--------------------------------------
D----------------------------------------------------------------------------------------------------------------------
A----------------------------------------------------------------------------------------------------------------------
E----------------------------------------------------------------------------------------------------------------------

e--------11--12--11------------11--------------------------------------------------------------------------------
B-14-------------------14--12-------14--12--10--14--12--10--9--12--10--9--12--10--9-------------
G---------------------------------------------------------------------------------------------------------11---------
D---------------------------------------------------------------------------------------------------------------------
A----------------------------------------------------------------------------------------------------------------------
E----------------------------------------------------------------------------------------------------------------------
[ Tab from: http://www.guitartabs.cc/tabs/m/misc/sailor_song_tab.html ]
e----------------------------------------------------------------------------------------------------------
B----------------------9------10--9--------------------------------------------------------------------
G----9-------11--9-----11----------9--9---------------------------------------------------------------
D-9-----13------------------------------------------------------------------------------------------------
A-----------------------------------------------------------------------------------------------------------
E-----------------------------------------------------------------------------------------------------------

e----------12----------------12-------9-----------------------------------14----------------14------11----------
B-9--12------12---9--12------12------10--10---14--12--11--14-----14--11--14-----14-----12--12
G-----------------------------------------------------------------------------------------------------------------------
D-----------------------------------------------------------------------------------------------------------------------
A-----------------------------------------------------------------------------------------------------------------------
E-----------------------------------------------------------------------------------------------------------------------

e--------11--12--11------------11--------------------------------------------------------------------------------
B-14-------------------14--12-------14--12--10--14--12--10--9--12--10--9--12--10--9-------------
G---------------------------------------------------------------------------------------------------------11---------
D---------------------------------------------------------------------------------------------------------------------
A----------------------------------------------------------------------------------------------------------------------
E----------------------------------------------------------------------------------------------------------------------

e----------------------------------------------------------------------------------------------------------
B----------------------9------10--9--------------------------------------------------------------------
G----9-------11--9-----11----------9--9---------------------------------------------------------------
D-9-----13------------------------------------------------------------------------------------------------
A-----------------------------------------------------------------------------------------------------------
E-----------------------------------------------------------------------------------------------------------
Comments