Misc - Romeo And Juliet Theme Chords & Tabs

 

Romeo And Juliet Theme Chords & Tabs

Misc Chords & Tabs

Version: 1 Type: Tab 2 ratings
1 star 2 stars 3 stars 4 stars 5 stars
comments

Romeo And Juliet Theme Tab

Romeo and Juliet Theme
1968 Dir. Franco Zeffirelli
Tabbed by Mike K


-------------------------------------------------------------------------------------
-------------------------------------------------------------------------------------
-9--12--11------------------9v----9--------------------------------------------------
------------9v----9--12--9-----------12--10--12v----12--10--9------9--------------9v-
---------------------------------------------------------------12-----12--10--12-----
-------------------------------------------------------------------------------------


------------------------------------------------------------------------------------
------------------------------------------------------------------------------------
-9--12--11------------------9v----9--14v--11v-------12--11--9-----12--11--9------9v-
------------9v----9--12--9-----------------------9-------------12------------12-----
------------------------------------------------------------------------------------
------------------------------------------------------------------------------------


-----------------------------------------------------------------------------------
-----12v-------10v----12--13v----10--12v--------10v--------------------------------
-12--------12-------------------------------12--------10--12v----9--11v-------99v--
--------------------------------------------------------------------------12-------
-----------------------------------------------------------------------------------
-----------------------------------------------------------------------------------

-------------------------------------------------------------------------------------
-------------------------------------------------------------------------------------
-9--12--11------------------9v----9--------------------------------------------------
------------9v----9--12--9-----------12--10--12v----12--10--9------9--------------9v-
---------------------------------------------------------------12-----12--10--12-----
-------------------------------------------------------------------------------------

[ Tab from: http://www.guitartabs.cc/tabs/m/misc/romeo_and_juliet_theme_tab.html ]
------------------------------------------------------------------------------------
------------------------------------------------------------------------------------
-9--12--11------------------9v----9--14v--11v-------12--11--9-----12--11--9------9v-
------------9v----9--12--9-----------------------9-------------12------------12-----
------------------------------------------------------------------------------------
------------------------------------------------------------------------------------


------------------------------------------------------------------------------------
------------------------------------------------------------------------------------
-5--8--7-----------------5v----5----------------------------------------------------
----------5v----5--8--5-----------8--6--8v----8--6--5--------5-----------5v---------
-------------------------------------------------------8v-------8--6--8-------------
------------------------------------------------------------------------------------


------------------------------------------------------------------------------------
------------------------------------------------------------------------------------
-5--8--7---------------5v--5--10v--7v-------8--7--5----8--7--5v-----5v--------------
----------5v--5--8--5--------------------5----------8------------8------------------
------------------------------------------------------------------------------------
------------------------------------------------------------------------------------


-----------------------------------------------------------------------------------
-----12v-------10v----12--13v----10--12v--------10v--------------------------------
-12--------12-------------------------------12--------10--12v----9--11v-------99v--
--------------------------------------------------------------------------12-------
-----------------------------------------------------------------------------------
-----------------------------------------------------------------------------------


-------------------------------------------------------------------------------------
-------------------------------------------------------------------------------------
-9--12--11------------------9v----9--------------------------------------------------
------------9v----9--12--9-----------12--10--12v----12--10--9------9--------------9v-
---------------------------------------------------------------12-----12--10--12-----
-------------------------------------------------------------------------------------

Comments