Misc - Rob Hegedus Song Chords & Tabs

 

Rob Hegedus Song Chords & Tabs

Misc Chords & Tabs

Version: 1 Type: Tab 0 ratings
1 star 2 stars 3 stars 4 stars 5 stars
comments

Rob Hegedus Song Tab

   

                Rob's Song


E----------------------------------------------------
B----------------------------------------------------
C----------------------------------------------------
D----------------------------------------------------
A------57----57----79-----57--7/9-11/9-7-6
E -00-----00----00-----00----------------------

[ Tab from: http://www.guitartabs.cc/tabs/m/misc/rob_hegedus_song_tab.html ]
E---------------------------------------------------
B---------------------------------------------------
C---------------------------------------------------
D---------------------------------------------------
A-----5-7/9/6/4/5-----------------------------
E-00-------------------55--00--5-7/6-8-6-5-


E--------------------------------------------------
B--------------------------------------------------
C--------------------------------------------------
D--------------------------------------------------
A--------------------------------------------------
E-5-5-7-7-6-6-4-5-0--------0-0-0----------
Comments