Misc - Roadrunner United - The End Chords & Tabs

 

Roadrunner United - The End Chords & Tabs

Misc Chords & Tabs

Version: 3 Type: Tab

Roadrunner United - The End Tab

   
roadrunner united
the end


here is what the second guitar plays. its like a solo but u kno everything else is still playin.

p=pull off
h=hammer on
~=let ring
[ Tab from: http://www.guitartabs.cc/tabs/m/misc/roadrunner_united_the_end_tab_ver_3.html ]
1:57                                 [----speed up----]
e|-----------------------------------12109------------|
B|------10p9-------12p11-------14p13~-----12109-------|
G|-9h10------11h12-------13h14------------------12109-|
D|----------------------------------------------------|
A|----------------------------------------------------|
D|----------------------------------------------------|

e|------10p9--------12p11-------15p14~-------16-|
B|-9h10-------11h12-------14h15-----------------|
G|-------------------------------------13-14----|
D|----------------------------------------------|
A|----------------------------------------------|
D|----------------------------------------------|

it sounds bout right to me but it may b off abit cos i cant here it tht clearily.

spill :D