Misc - Roadrunner United - The End Chords & Tabs

 

Roadrunner United - The End Chords & Tabs

Misc Chords & Tabs

Version: 1 Type: Tab

Roadrunner United - The End Tab

   
roadrunner united
track 5
the end

Drop D tunning
~= let ring
x=mute

intro(x1)/verse(x2)
e|-----------------------------------------|
B|------7--------8-6-------7-------9-11----|
G|--7-9------7-9-------7-9-----7-9---------|
D|-----------------------------------------|
A|-----------------------------------------|
D|-----------------------------------------|

chr x2
e|-------------------------------|
B|-------------------------------|
G|-------------------------------|
D|-2~2~2~2~3~3~3~3~5~5~5~5~3~~3~~|
A|-2~2~2~2~3~3~3~3~5~5~5~5~3~~3~~|
D|-0~0~0~0~1~1~1~1~3~3~3~3~1~~1~~|

verse 2(x2)
e|-----------------------------------------|
B|------7--------8-6-------7-------9-11----|
G|--7-9------7-9-------7-9-----7-9---------|
D|-----------------------------------------|
A|-----------------------------------------|
D|-----------------------------------------|

chr 2 (x2)
e|-------------------------------|
B|-------------------------------|
G|-------------------------------|
D|-2~2~2~2~3~3~3~3~5~5~5~5~3~~3~~|
A|-2~2~2~2~3~3~3~3~5~5~5~5~3~~3~~|
D|-0~0~0~0~1~1~1~1~3~3~3~3~1~~1~~|
[ Tab from: http://www.guitartabs.cc/tabs/m/misc/roadrunner_united_the_end_tab.html ]
interlude (x3)
e|---------------------------------|
B|---------------------------------|
G|-------------------------4~4~4~4~|
D|-3~3~3~3~7~7~7~7~5~5~5~5~4~4~4~4~|
A|-3~3~3~3~7~7~7~7~5~5~5~5~2~2~2~2~|
D|-1~1~1~1~5~5~5~5~3~3~3~3~--------|

verse3 (x2)
e|-----------------------------------------|
B|------7--------8-6-------7-------9-11----|
G|--7-9------7-9-------7-9-----7-9---------|
D|-----------------------------------------|
A|-----------------------------------------|
D|-----------------------------------------|

chr 3 (x1)part1
e|-------------------------|
B|-------------------------|
G|-------------------------|
D|-22xxxx33xxxx55xxxx3~~3~~|
A|-22xxxx33xxxx55xxxx3~~3~~|
D|-00xxxx11xxxx33xxxx1~~1~~|

chr3 (x1) part2 
e|-------------------------------|
B|-------------------------------|
G|-------------------------------|
D|-2~2~2~2~3~3~3~3~5~5~5~5~3~~3~~|
A|-2~2~2~2~3~3~3~3~5~5~5~5~3~~3~~|
D|-0~0~0~0~1~1~1~1~3~3~3~3~1~~1~~|

chr3 (x1) part3 
e|--------------------------|
B|--------------------------|
G|--------------------------|
D|-2~2~2~2~3~3~3~3~5~5~5~5~x|
A|-2~2~2~2~3~3~3~3~5~5~5~5~x|
D|-0~0~0~0~1~1~1~1~3~3~3~3~x|

{peeeeeeano outrooooo}
thr is a part missing which is the second guitar during the interlude. i cant hear it
tho 2 much cos of the mix so ill leave tht 2 sum1 else

ne questions email me alex_jon04@hotmail.com