Misc - Roadrunner United - The End Chords & Tabs

 

Roadrunner United - The End Chords & Tabs

Misc Chords & Tabs

Version: 2 Type: Bass Tab

Roadrunner United - The End Bass Tab

Hey dudes! this is my first tab so if it sucks im sorry! rate it for me and if u have
n e suggestions 2 make it better, e-mail me!

Title: The End

Album: Roadrunner United

Website: www.roadrunnerrecords.com

*********************************************************
Play the measure for the amount of time shown
TAB:
Intro 0:00  0:12
g |-----------------------------------|
d |-----------------------------------|
a |-----------------------------------|
e |-----------------------------------|

Verse 1 0:12  0:35
g |-----------------------------------|
d |-----------------------------------|
a |-4-4-h5--5-h6--6-h5-h4--5----------|
e |-----------------------------------|

Chorus 1 0:35  0:58
g |-----------------------------------------------------------------|
d |-----------------------------------------------------------------|
a |-------------------------------------------------7-6-5--6--------|
e |-2-3-4-3--5-6--6-7--7-6-5--6--2-3-4-3--5-6--6-7------------------|
[ Tab from: http://www.guitartabs.cc/tabs/m/misc/roadrunner_united_the_end_btab_ver_2.html ]
Verse 2 0:58  1:22
g |-----------------------------------|
d |-----------------------------------|
a |-4-4-h5--5-h6--6-h5-h4--5----------|
e |-----------------------------------|

Chorus 2 1:22  1:45
g |-----------------------------------------------------------------|
d |-----------------------------------------------------------------|
a |-------------------------------------------------7-6-5--6--------|
e |-2-3-4-3--5-6--6-7--7-6-5--6--2-3-4-3--5-6--6-7------------------|

Breakdown 1:45  2:20
g |-----------------------------------|
d |-----------------------------------|
a |-----------------------------------|
e |-5-6-5-6--5-6-5-6--5-6-5-6---------|

Verse 3 2:20  2:43
g |-----------------------------------|
d |-----------------------------------|
a |-4-4-h5--5-h6--6-h5-h4--5----------|
e |-----------------------------------|

Outro 2:43  3:16
g |----------------------------------------------------------------------------|
d |----------------------------------------------------------------------------|
a |--------------------------------------------------------------------7-6-5--6|
e |----*5-6--5-6--5-6*-2-3-4-3--5-6--6-7--7-6-5--6--2-3-4-3--5-6--6-7----------|


h  Hammer On
*-* - Play Once