Misc - Roadrunner United - The End Chords & Tabs

 

Roadrunner United - The End Chords & Tabs

Misc Chords & Tabs

Version: 1 Type: Bass Tab 0 ratings
1 star 2 stars 3 stars 4 stars 5 stars
comments

Roadrunner United - The End Bass Tab

   
roadrunner united
the end:
    matthew k heafy-vocals/lead guitar
    Dino Cazares   -rhythm
    Nadja Peulen   -Bass
    Roy Mayorga    -Drums
    Logan Mader    -Melodic guitar/harmonics
    Rhy Fulber     -Keyboard/programme

intro
G|----------------------------------|
D|----------------------------------|
A|--------1-1--1-3-3--4//2-2-1-1----|   x1
E|-3-3--3---------------------------|

Verse
G|----------------------------------|
D|----------------------------------|
A|--------1-1--1-3-3--4//2-2-1-1----|   x2
E|-3-3--3---------------------------|

Chorus
G|-------------------------------------|-----|
D|-------------------------------------|-----|
A|-------------------------------------|-----|   x2
E|-44444444-55555555-66666666-77778888-|-7-7-|
                                  ^       ^ on final repeat
                                  |skip on final repeat
Verse
G|----------------------------------|
D|----------------------------------|
A|--------1-1--1-3-3--4//2-2-1-1----|   x2
E|-3-3--3---------------------------|
[ Tab from: http://www.guitartabs.cc/tabs/m/misc/roadrunner_united_the_end_btab.html ]
Chorus
G|-------------------------------------|-----|
D|-------------------------------------|-----|
A|-------------------------------------|-----|  x2
E|-44444444-55555555-66666666-77778888-|-7-7-|
                                  ^       ^ on final repeat
                                  |skip on final repeat
Bridge
G|-------------------------------------------------------------|
D|-------------------------------------------------------------|
A|-------------------------------------------------------------|  x3
E|-555555555555555555555555555-66666666666666666666555555555555|
Dont think its the right amount but its somethin like that


Verse
G|-----------------------------------|
D|-----------------------------------|
A|--------1~~~--3~~~-4~~~2~~~1~~~----|   x1
E|-3~~~------------------------------|


G|-------------------|
D|-------------------|
A|-------------------|
E|-11---22---33---44-|

Chorus
G|-------------------------------------|-----|
D|-------------------------------------|-----|
A|-------------------------------------|-----|  x2
E|-44444444-55555555-66666666-77778888-|-7-7-|
                                  ^       ^ on final repeat
                                  |skip on final repeat
Comments