Misc - Roadrunner United - The Dagger Chords & Tabs

 

Roadrunner United - The Dagger Chords & Tabs

Misc Chords & Tabs

Version: 3 Type: Tab

Roadrunner United - The Dagger Tab

   
Tabbed by:626chai626
Tuning:Drop-B (B F# B E G# C#)
The Dagger
this is my first tab so plz rate and ive only worked out the beginning of the solo
so if any has tried to tackle the monster solo or any correction or suggestions to
jchaisuk@btinternet.com
[ Tab from: http://www.guitartabs.cc/tabs/m/misc/roadrunner_united_the_dagger_tab_ver_3.html ]
Intro:Gtr1+2
c|-----------------------------------------------|-------------------|
G|-----------------------------------------------|-------------------|
E|-----------------------------------------------|4-3---4-3---4-3----|
B|---------5---------------5-------5-----------5-|----5-----5--------|
F|-----------------3-------------------3---------|-------------------|
B|-4-44444---44444---44444---44444-------44444---|-------------------|x2
pm   .....   .....   .....   .....       .....         ^
        on the 2nd time Gtr2 plays this together with  ^and gtr1 does
543 on the on the b string instead of e
c|--------------------|
G|-5-4----5-4---------|
E|-----5------5-4-3---|
B|--------------------|
F|--------------------|
B|--------------------|
Verse 1 both guitars
c|----------------------------------------------------|------------|this is
G|----------------------------------------------------|------------|played
E|----------------------------------------------------|------------|on the
B|-2--2-2^--2/9-8~--3/7\3--2--2-2^-2/9-8~-----6-5-5---|-8~---------|2nd time
F|-2--2-2^--2/9-8~--3/7\3--2--2-2^-2/9-8~----6---6-6-5|-8~---------|
B|-2--2-2^--2/9-8~--3/7\3--2--2-2^-2/9-8~-5-7---------|-8~---------|
After bass part gtr2 plays this
c|--------------|
G|-6-x30/-18x30-|
E|-9----/-21----|
B|--------------|
F|--------------|                                         8~
B|--------------|                                         8~
then play intro+ verse1. at the end of verse 1 after the 8~ gtr1 play the bit on the end
of intro,then back to after bass bass part, then intro again and then do verse1 but dont
do the bit after the 2nd time you play the 8
Verse2 gtr1+2
c|----------------------------------------------------------------|
G|----------------------------------------------------------------|
E|----------------------------------------------------------------|
B|----------------------------------------------------------------|
F|----10---12-12/14\10/12\9/10\7----10----12-12/14\10/12/17\15\14-|
B|-1/---1/-----------------------1/----1/-------------------------|

| /  slide up
| \  slide down
| h  hammer-on
| p  pull-off
| ~  vibrato
| *  pinched harmonic
| x  Mute note
| ^  natural harmonic
===============================================================================