Misc - Roadrunner United - The Dagger Chords & Tabs

 

Roadrunner United - The Dagger Chords & Tabs

Misc Chords & Tabs

Version: 2 Type: Tab

Roadrunner United - The Dagger Tab

   
|-----------------------------------[the dagger]~[roadrunner united]
--------------------------------------|

sorry but i couldnt tab the amazing solo anyway this is my first tab.
any corrections or suggestions to richardh33@hotmail.com HAVE FUN!!!

D|-----------------------------------------------------------------|
A|-----------------------------------------------------------------|
F|-----------------------------------------------------------------|
C|------------------------------------------/7-6---7-6---7---------|
G|-20000003000000800000030000620000003000000-----7-----7---7-------|       / Riff 1
C|-20000003000000800000030000620000003000000-----------------------|      /
                                                                         /
D|-----------------------------------------------------------------| \
A|-----------------------------------------------------------------|  \
F|-----------------------------------------------------------------|   \
C|--------------------------------6-5---5--------------------------|    \
G|-0-1-2-8-7-2-6-1-0-1-2-87-----5-----6---6-5-5-1-8-7-2-6-1--------|     \   
C|-0-1-2-8-7-2-6-1-0-1-2-87-5-7---------------5-1-8-7-2-6-1--------|      Riff 2
                                                                         /
D|-----------------------------------------------------------------|    /
A|-----------------------------------------------------------------|   / 
F|-----------------------------------------------------------------|  /
C|-----------------------------------------------------------------| /
G|-0-1-2-8-7v------------------------------------------------------|/
C|-0-1-2-8-7v------------------------------------------------------|
[ Tab from: http://www.guitartabs.cc/tabs/m/misc/roadrunner_united_the_dagger_tab_ver_2.html ]
D|-----------------------------------------------------------------|
A|-----------------------------------------------------------------|
F|-7777777777777777NNNNNNNNNNNNNNNN--------------------------------| (N = nineteen)
C|-----------------------------------------------------------------|           / Riff 3
G|-----------------------------------------------------------------|          / 
C|-----------------------------------------------------------------|         /

D|-----------------------------------------------------------------|
A|-----------------------------------------------------------------| (T = ten)
F|-----------------------------------------------------------------|            Riff 4
C|-----------------7-3-5-2-3-0----------------7-3-5-T-8-7----------| Let last 7 ring last time round
G|----8\-----T\-------------------8------T-------------------------|
C|-0----0-3-----0--------------0----0-3----0-----------------------|

D|-----------------------------------------------------------------|
A|-----------------------------------------------------------------|
F|-----------------------------------------------------------------|    / Riff 5
C|--------------------------0--------------------------------------|   /
G|-000-000-000-000-000-00-----------3-2----------------------------|  /
C|-000-000-000-000-000-0023---0-2-3--------------------------------| /

D|-----------------------------------------------------------------|
A|-----------------------------------------------------------------|
F|-13-------13-------15----15----11--------------------------------|    / Riff 6
C|----11-11----11-11----11----11----11-----------------------------|   /
G|-----------------------------------------------------------------|  /
C|-----------------------------------------------------------------| /

D|-----------------------------------------------------------------|
A|-----------------------------------------------------------------|
F|-----------------------------------------------------------------|    / Riff 7       
C|-----------------------------------------------------------------|   /           play brackets every
G|-2-0-2-2-0-2-2-0-2-0-3-5-0--(8-7-5-8-7-5)------------------------|  /           4th time round.....
C|-2-0-2-2-0-2-2-0-2-0-3-5-0--(8-7-5-8-7-5)------------------------| /

order
1 x 2
2
3
1 x 2
2
3
1 x 2 
2
4 x 2
5 x 4
(solo)
6 x 4
4 x 2
7 (repeat until end

| /  slide up
| \  slide down
| h  hammer-on
| p  pull-off
| x  Mute note
| ^  bend
| v  vibrato
====================================================================