Misc - Roadrunner United - The Dagger Chords & Tabs

 

Roadrunner United - The Dagger Chords & Tabs

Misc Chords & Tabs

Version: 1 Type: Tab

Roadrunner United - The Dagger Tab

   
the dagger

gtr2
(big ass pick slide)

gtr1+gtr2 (intro/prechr)
e|----------------------------------|-----------------|
B|----------------------------------|-----------------|
G|----------------------------------|-3b--------------|
D|-------6----3----6----3----6----3-|----643-653-643--|
A|----------------------------------|-------6-------6-|
D|-0h4444-4444-4444-4444-4444-4444--|-----------------|
[ Tab from: http://www.guitartabs.cc/tabs/m/misc/roadrunner_united_the_dagger_tab.html ]
gtr2(intro part2)
e|------------------|
B|------------------|
G|------------------|
D|------------------|
A|-777755559999x----|x2
D|-5555333377776vvvv|

gtr1
e|-----------------|
B|-----------------|
G|-3b--------------|
D|----643-653-643--|(while gtr2 vibrato's)
A|-------6-------6-|
D|-----------------|

gtr1 (verse after bass)
e|---|
B|---|
G|---|
D|-9-|
A|-x-|
D|-7-|   (repeat these. u'll get th rhytm)

e|----|  (repeat these. u'll get th rhytm)
B|-17-|
G|-x--|
D|-15-|
A|----|
D|----|

havn't done all the song but this is the bassis and order of the song