Misc - Roadrunner United - No Mas Control Chords & Tabs

 

Roadrunner United - No Mas Control Chords & Tabs

Misc Chords & Tabs

Version: 1 Type: Bass Tab

Roadrunner United - No Mas Control Bass Tab

   
-------------------------------------------------------------------------------
		       NO MAS CONTROL - Roadrunner United
-------------------------------------------------------------------------------

Tabbed By : bassmasta_saxman
e-mail: read2906@hotmail.com (feel free to email with any suggestions/comments)

Tuning: Standard 5-String (B E A D G)

Intro:

G|----------------------------------------------|
D|----------------------------------------------|
A|----------------------------------------------| x2
E|----------------------------------------------|
B|-0--0-0-1--1-1-1-1-1-1-5--5-5-3--3-3-3-3-3-3--|

Verse:

G|--------------------------------------------------|
D|--------------------------------------------------|
A|--------------------------------------------------| x2
E|--------------------------------------------------|
B|-00000000000001--1-1-1-1--5555555555553--3-3-3-3--|

G|---------------------------------------------------------------|
D|---------------------------------------------------------------|
A|---------------------------------------------------------------| x2
E|---------------------------------------------------------------|
B|-00000000000001--111111-1-1-1-1--555555555553--333333-3-3-3-3--|

G|-----|
D|-----|
A|-----|
E|-----|
B|-12\-|

Chorus:

G|----------------------------------------------|
D|----------------------------------------------|
A|----------------------------------------------| x2
E|----------------------------------------------|
B|-0--0-0-1--1-1-1-1-1-1-5--5-5-3--3-3-3-3-3-3--|

Pre-Verse:

G|---------------------------------------------------------------------------|
D|---------------------------------------------------------------------------|
A|---------------------------------------------------------------------------|
E|-322-2-2-2-2-322-2-2-2-2-322-2-2-322-2-2-2-2-322-2-2-2-2-322-2-2-3~~-------|

Verse:

G|--------------------------------------------------|
D|--------------------------------------------------|
A|--------------------------------------------------|
E|--------------------------------------------------|
B|-00000000000001--1-1-1-1--5555555555553--3-3-3-3--|

G|-----------------------------------------------------|
D|-----------------------------------------------------|
A|-----------------------------------------------------|
E|-----------------------------------------------------|
B|-00000000000001--1-1-1-1--5555555555553--3-3-3-/12\--|

G|---------------------------------------------------------------|
D|---------------------------------------------------------------|
A|---------------------------------------------------------------|
E|---------------------------------------------------------------|
B|-00000000000001--111111-1-1-1-1--555555555553--333333-3-3-3-3--|
[ Tab from: http://www.guitartabs.cc/tabs/m/misc/roadrunner_united_no_mas_control_btab.html ]
G|---------------------------------------------------------------|
D|---------------------------------------------------------------|
A|---------------------------------------------------------------|
E|---------------------------------------------------------------|
B|-00000000000001--111111-1-1-1-1--555555555555--3333333333333---|

Chorus:

G|----------------------------------------------|
D|----------------------------------------------|
A|----------------------------------------------| x4
E|----------------------------------------------|
B|-0--0-0-1--1-1-1-1-1-1-5--5-5-3--3-3-3-3-3-3--|

Bridge:

G|----------------------------------------------------------------------------|
D|----------------------------------------------------------------------------|
A|----------------------------------------------------------------------------| x2
E|-----------------------------------------------------2-2-2-----------0-0-0--|
B|-355-5-5-5-7-7-7-355-5-5-5-7-7-7-333-3-3-3-333-3-3-3-------333-3-3-3--------|

G|------------------------------------------|
D|------------------------------------------|
A|------------------------------------------| x2
E|------------------------------------------|
B|-111111111-111111111-111111111-111111111--|

G|--------------------------------|
D|--------------------------------|
A|--------------------------------| x4
E|--------------------------------|
B|-111111111-6-5-6-111111111-6-5--|

G|-------------------------------|
D|-------------------------------|
A|-------------------------------|
E|-------------------------------|
B|-0000000000000--1111111111111--|

Rest until 2:14 then chorus:

Chorus:

G|----------------------------------------------|
D|----------------------------------------------|
A|----------------------------------------------| x4
E|----------------------------------------------|
B|-0--0-0-1--1-1-1-1-1-1-5--5-5-3--3-3-3-3-3-3--|

Outro:

G|----------------------------------------------------------------------------|
D|----------------------------------------------------------------------------|
A|----------------------------------------------------------------------------| x3
E|-----------------------------------------------------2-2-2-----------0-0-0--|
B|-355-5-5-5-7-7-7-355-5-5-5-7-7-7-333-3-3-3-333-3-3-3-------333-3-3-3--------|

G|----------------------------------------------------------------|
D|----------------------------------------------------------------|
A|----------------------------------------------------------------|
E|----------------------------------------------------------------|
B|-355-5-5-5-7-7-7-355-5-5-5-7-7-7-111111111-6-5-6-111111111-6-5--|

END

| /  slide up
| \  slide down
| h  hammer-on
| p  pull-off
| ~  vibrato
| +  harmonic
| x  Mute note
===============================================================================