Misc - Roadrunner United - In The Fire Chords & Tabs

 

Roadrunner United - In The Fire Chords & Tabs

Misc Chords & Tabs

Version: 5 Type: Tab

Roadrunner United - In The Fire Tab

   
I wrote this tab to help you guys out with this kickass song. I used the dvd as a
reference and played the song on slow speeds so I am 99% sure this tab is accurate.
The parts I was unsure of I just left out, especially some parts of the solo. This
is my first tab so hopefully it's enough to get you guys started with the song.
Good luck!


Intro Solo:
e|-------------------------------------------------------8-11b12-------------| 
B|-7h8~-7h8p7--------------8-10b12-10~-8h10p8-7------------------------------| 
G|------------9-8-------------------------------9-8~-8/9---------------------| 
D|----------------10~-9h10---------------------------------------------------| 
A|---------------------------------------------------------------------------| 
E|---------------------------------------------------------------------------| 


(d=downstroke u=upstroke)
   d   d u d    d   d u d    d   d   d u d    d   d u d    d 
e|-12p8--8-------------------------------------------------------------------| 
B|-----12--12p8-11p8--8------------------------------------------------------| 
G|------------------11--11p8-11~-11p8--8-------------------------------------| 
D|-----------------------------------10--10p7-10p7--7------------------------| 
A|------------------------------------------------10--10p7-6~---/10-9-7-6~---| 
E|---------------------------------------------------------------------------| 


e|---------------------------------------------------------------------------| 
B|----------------------------------13b15-13b14-13-12------------------------| 
G|------------------881111-/11~-12~-------------------14b16~-14b15-14-12-11~-| 
D|-----------771010----------------------------------------------------------| 
A|------6699-----------------------------------------------------------------| 
E|-5588----------------------------------------------------------------------| 


(Pure FAST alternate picking and no hammerons! Watch Matt’s sextuplet lessons)
e|---------------------------------------------------------------------------| 
B|---------------------------------------------------------------------------| 
G|-------------------------------------------------------14-15-16-14-15-16---| 
D|-------------------------------------14-15-16-14-15-16---------------------| 
A|-------------------12-14-15-12-14-15---------------------------------------| 
E|-12-14-15-12-14-15---------------------------------------------------------| 


e|----------15--15-16-17-19-19~---19b20r19-18-17-18-19b20-19~---23b24r23b24--| 
B|-15-16-17------------------------------------------------------------------| 
G|---------------------------------------------------------------------------| 
D|---------------------------------------------------------------------------| 
A|---------------------------------------------------------------------------| 
E|---------------------------------------------------------------------------| 


Intro Riff: (Tremolo pick the exact amount of notes indicated. All palm muted)
e|---------------------------------------------------------------------------| 
B|---------------------------------------------------------------------------| 
G|---------------------------------------------------------------------------| 
D|---------------------------------------------------------------------------| 
A|-7777777777-665544-3333333333-445566-00000000-33333333-22222222-66666666---| 
E|---------------------------------------------------------------------------|
   .......... ...... .......... ...... ........ ........ ........ ........


e|---------------------------------------------------------------------------| 
B|---------------------------------------------------------------------------| 
G|----------------------------------------------------------------------5588-| 
D|-----------------------------------------------------------------4477------| 
A|-7777777777-665544-3333333333-445566-00000000-33333333------3366-----------| 
E|-------------------------------------------------------2255----------------|
   .......... ...... .......... ...... ........ ........ .... ....


(Downstroke all single notes. Pay attention to palm muted notes!)
e|---------------------------------------------------------------------------| 
B|---------------------------------------------------------------------------| 
G|---------------------------------------------------------------------------| 
D|----------9----7------------10----9-------------5---4----------------------| 
A|-77777777---10---9-------------12---10------------7---5-----------66666666-| 
E|-------------------88888888------------55555555----------77777777----------| 
   ........   .      ........    .       ........   .      ........ ........


e|---------------------------------------------------------------------------| 
B|---------------------------------------------------------------------------| 
G|---------------------------------------------------------------------------| 
D|----------9----7------------10----9-------------5---4----------------------| 
A|-77777777---10---9-------------12---10------------7---5-----------66666666-| 
E|-------------------88888888------------55555555----------77777777----------| 
   ........   .      ........    .       ........   .      ........ ........


Verse Riff: 
e|---------------------------------------------------------------------------| 
B|---------------------------------------------------------------------------| 
G|---------------------------------------------------------------------------| 
D|-9-------9---------9-------9-8---9-------9---------5--5--5--5--9-9-9-9-----| 
A|-7-------7---------7-------7-6---7-------7---------3--3--3--3--6-6-6-6-----| 
E|---0-0-0---0-0-0-----0-0-0---------0-0-0---0-0-0---------------------------| 
     . . .   . . .     . . .         . . .   . . .


e|---------------------------------------------------------------------------| 
B|---------------------------------------------------------------------------| 
G|---------------------------------------------------------------------------| 
D|-9-------9---------9-------9-8---9-------9--------10-10-10-10--9-9-9-9-----| 
A|-7-------7---------7-------7-6---7-------7---------7--7--7--7--6-6-6-6-----| 
E|---0-0-0---0-0-0-----0-0-0---------0-0-0---0-0-0---------------------------| 
     . . .   . . .     . . .         . . .   . . . 


Pre-Chorus Riff: 
e|---------------------------------------------------------------------------| 
B|-----------------------8---10----------------------------------------------| 
G|-5/7-5-------5/7-5-----5----7----5/7-5-------------------------------------| 
D|-7/9-7-------7/9-7---------------7/9-7-------------------------------------| 
A|-------0-0-0-------0-0---0-------------0-0-0-0-0--10--9--7--6--------------| 
E|---------------------------------------------------8--7--5--4--------------| 
         . . .       . .   .             . . . . .   .  .  .


*************SOLO************
[ Tab from: http://www.guitartabs.cc/tabs/m/misc/roadrunner_united_in_the_fire_tab_ver_5.html ]
Matt: (With Wah Pedal)
e|-----121212~-121212-14-14b15-14~-12h14p12----------------------------------|
B|-/12--------------------------------------15b17~r15-12~-12/15\10~-10/12\7~-|
G|---------------------------------------------------------------------------|
D|---------------------------------------------------------------------------|
A|---------------------------------------------------------------------------|
E|---------------------------------------------------------------------------|


e|---------------------15-------12-------12-------12-------12-------12-12----|
B|-7b88888888~---15b17----15b17----15b17----15b17----15b17----15b17----------|
G|---------------------------------------------------------------------------|
D|---------------------------------------------------------------------------|
A|---------------------------------------------------------------------------|
E|---------------------------------------------------------------------------|


e|-15-15-15-15-15-15-15-17-15-12-------------------15-12-------------12-12---|
B|-------------------------------15-12-12-15-12-12-------15-12---------------|
G|-------------------------------------------------------------14b16---------|
D|---------------------------------------------------------------------------|
A|---------------------------------------------------------------------------|
E|---------------------------------------------------------------------------|


e|-------12-------------12-------------12-------------12-12-15p12------------|
B|----------15p12----------15p12----------15p12-------------------15p12------|
G|-14b16----------14b16----------14b16----------14b16------------------------|
D|---------------------------------------------------------------------------|
A|---------------------------------------------------------------------------|
E|---------------------------------------------------------------------------|


e|---------------------------------------------------------------------------|
B|-15p12--------------------------------------------------------------15b17~-|
G|-------14p12-14p12-14p12-14b16r14p12-----------12----12-14b16r14p12--------|
D|-------------------------------------14~-12-14----14-----------------------|
A|---------------------------------------------------------------------------|
E|---------------------------------------------------------------------------|


e|---------------------------------------------------------------------------|
B|-15b17-15-13-12~-----------------------------------------------------------|
G|-----------------------------------------------------17-19-21-17-19-21-----|
D|-----------------------------------17-19-21-17-19-21-----------------------|
A|-----------------15-17-19-15-17-19-----------------------------------------|
E|---------------------------------------------------------------------------|


e|----------19-20-22-22b24---------------------------------------------------|
B|-19-20-22------------------------------------------------------------------|
G|---------------------------------------------------------------------------|
D|---------------------------------------------------------------------------|
A|---------------------------------------------------------------------------|
E|---------------------------------------------------------------------------|


Corey:
e|---------------------------------------------------------------------------|
B|-----------8-7~-----------------/12-12-12-12P10-10\8-8\7-------------------|
G|-9~-9~-7-9-----7-9-11B12R11-9~--------------------------9-9-9P7------------|
D|----------------------------------------------------------------10-9-7-9*~-|
A|---------------------------------------------------------------------------|
E|---------------------------------------------------------------------------|
           . .   . .                                      . .      . . .

Some random pick sweeping...


Matt:            
e|----------------------10-12-14~--15h17p15p12----12-------------------------|
B|-------------------10------------------------15----------------------------|
G|-----------9-11-12---------------------------------14b16r14p12h14p12h14~---|
D|---------9-----------------------------------------------------------------|
A|----9-10-------------------------------------------------------------------|
E|-12------------------------------------------------------------------------|
    . . .  .

                            (Switch to neck pickup)
e|---------------------------------------------------------------------------|
B|---------------------------------12-------------------15b17r15b17----------|
G|---------------------------------12----12-14b16r14p12----------------------|
D|-14b16--16*-14*-12--------/12-14----14-------------------------------------|
A|-------------------14~\----------------------------------------------------|
E|---------------------------------------------------------------------------|


                                  (Bridge pickup)
e|---------------------------------------------------------------------------|
B|---------------------------------------------------------------------------|
G|-----11---11/12-11-9-8-9---11~--12*~---------------------------------------|
D|-9-9----9------------------------------------------------------------------|
A|---------------------------------------------------------------------------|
E|---------------------------------------------------------------------------|
   . .    .

Corey:
Next part is too fast to tab out. 

Corey: (T = tap whammy bar down)
e|---------------------------------------------------------------------------|
B|---------------------------------------------------------------------------|
G|-16~--T-T-T--17-16-14---12-14-14--T-T-T--p12-11-12---11h12p11--------------|
D|--------------------------------------------------------------14-12-14~----|
A|---------------------------------------------------------------------------|
E|---------------------------------------------------------------------------|

e|-------15-14-------/15-14---------------15-17-19-17-15---------------------|
B|-----12------15~----------15-17~--17-17----------------19-17-15-19-17-15---|
G|---12----------------------------------------------------------------------|
D|-14------------------------------------------------------------------------|
A|---------------------------------------------------------------------------|
E|---------------------------------------------------------------------------|

e|---------------------------------------------------------------------------|
B|------------------------------------------------------------------15h17~---|
G|-17-16-14-17-16-14-------------14-16-17-16-14----------14h16-16~-----------|
D|----------------------14-16-17----------------17-16-14---------------------|
A|-------------------17------------------------------------------------------|
E|---------------------------------------------------------------------------|

SONG ORDER:
Intro Riff + Intro Solo
Verse Riff x2
Prechorus Riff x2
Intro Riff
Verse Riff x2
Prechorus Riff x2
Intro Riff
Solo
Intro Riff