Misc - Roadrunner United - In The Fire Chords & Tabs

 

Roadrunner United - In The Fire Chords & Tabs

Misc Chords & Tabs

Version: 1 Type: Tab

Roadrunner United - In The Fire Tab

   
-------------------------------------------------------------------------------
	     In the fire - road runner allstars
-------------------------------------------------------------------------------
Tabbed by:christian litchfield
Email:greby_@hotmail.com

Tuning:standerd
intro/chorus
e|-------------------------------------------------------------------------|
B|-------------------------------------------------------------------------|
G|-------------------------------------------------------------------------|
D|-------------------------------------------------------------------------|
A|-----7-x16-------3-x16----0-x16-----2-x8--6-x8---------------------------|
E|-------------------------------------------------------------------------|

e|---------------------------------------------------------------------------|
B|---------------------------------------------------------------------------|
G|---------------------------------------------------------------------------|
D|-------------------9-5-7-----------------------10-8-9----------------------|
A|---8-8-8-8-8-8-8-8-------9----3-3-3-3-3-3-3-3----------10--0-0-0-0-0-0-0-0-|
E|---------------------------------------------------------------------------|
[ Tab from: http://www.guitartabs.cc/tabs/m/misc/roadrunner_united_in_the_fire_tab.html ]
-------------------------------------------|
-------------------------------------------|
-------------------------------------------|
-7-4-5-------------------------------------|
-------7---2-2-2-2-2-2-2-2-6-6-6-6-6-6-6-6-|
-------------------------------------------|

verse riff
l----------------------------------|
|----------------------------------|l
|----------------------------------|
|--9--------9--------9------9\8----|
|--7--------7--------7------7\6----|
|----0-0-0---0-0-0---0-0-0---------|
pre chorus
e|------------------------------------------------------------------------|
B|------------------------------------------------------------------------|
G|-5/7\5------5/7\5---5-4---then the same with----------------------------|
D|-7/9\7------7/9\7---7-5------this at the end----------------------------|
A|---------0-0---------0--------------------------------------7-6-4-3-----|
E|------------------------------------------------------------5-4-2-1-----|l

thats all i can be botherd to tab out at the moment ill do the solos soon p.s matt heafy 
cory rule iff u have
any questions or comments email me cheers


| /  slide up
| \  slide down
| h  hammer-on
| p  pull-off
| ~  vibrato
| +  harmonic
| x  Mute note
===============================================================================