Misc - Roadrunner United - Blood And Flames Chords & Tabs

 

Roadrunner United - Blood And Flames Chords & Tabs

Misc Chords & Tabs

Version: 1 Type: Tab

Roadrunner United - Blood And Flames Tab

13. Blood & Flames

Jesse David Leach (SEEMLESS, ex-KILLSWITCH ENGAGE) - vocals
Matthew K. Heafy (TRIVIUM) - lead, rhythm and acoustic guitars, vocals
Josh Rand (STONE SOUR) - rhythm guitars
Mike D'Antonio (KILLSWITCH ENGAGE) - bass
Johnny Kelly (TYPE O NEGATIVE) - drums


Right, this is the cool riff from this Blood and Flames song on the Roadrunner United
CD. I say again, this is NOT the whole song. Im not sure of the tuning though, i think
its standard but with the top string tuned to D. (play around yourself)
[ Tab from: http://www.guitartabs.cc/tabs/m/misc/roadrunner_united_blood_and_flames_tab.html ]
E|--------------------------------------------------------|
B|--------------------------------------------------------|
G|--------------------------------------------------------|
D|--------------------------------------------------------|
A|-----------------------------------------------0-3-4-5~-|
D|-12-0-12-11~--0-11-10~--0-10-9~--0-9\3-0-3-4-5----------|

E|-------------------|
B|-------------------|
G|-------------------|
D|-------------------|
A|---3h5---3h5---3h5-|
D|-0-----0-----0-----|

http://www.roadrun.com/rrunited/