Misc - Roadrunner United - Army Of The Sun Chords & Tabs

 

Roadrunner United - Army Of The Sun Chords & Tabs

Misc Chords & Tabs

Version: 1 Type: Bass Tab

Roadrunner United - Army Of The Sun Bass Tab

Artist: Roadrunner United
Song: Army of The Sun
Tabbed By : shaggyd133
e-mail: exviter989@msn.com

Tuning: BEAD

This is yet another awesome song done by the man from Machine Head
himself, Sir Robbert Flynn. He nails the song with the killer guitar fills, 
riffs, and breakdowns. Enjoy!

Any questions or comments, fan mail, e-mail it.


Weird guitar effects and riffs

Intro x4

D|------------------------------------------------------------|
A|------------------------------------------------------------|
E|------------------------------------------------------------|
B|---7-7-7-7-7-7-7-7-7-7-7-7-3-3-3-3-3-3-3-3-0-0-0-0-0-0-0-0--|


Verse x4 
        don't play the 2nd part on the 4th time
        go straight to prechorus
D|------------------------------|
A|------------------------------|
E|------------------------------|
B|--3-3-0--3-3-0--3-3-0--3-3-0--|

D|------------------------------|
A|------------------------------|
E|--2-2-0--2-2-0--2-2-0--2-2-0--|
B|------------------------------|
 

Pre-Chorus

D|----------------------------------------------------------|
A|--2-2-0--2-2-0--2-2-0--2-2-0--3-3-0--3-3-0--3-3-0--3-3-0--|
E|----------------------------------------------------------|
B|----------------------------------------------------------|


Chorus x4

D|------------------------------------------------------------|
A|------------------------------------------------------------|
E|------------------------------------------------------------|
B|---7-7-7-7-7-7-7-7-7-7-7-7-3-3-3-3-3-3-3-3-0-0-0-0-0-0-0-0--|


Verse x4
        don't play the 2nd part on the 4th time
        go straight to prechorus
D|------------------------------|
A|------------------------------|
E|------------------------------|
B|--3-3-0--3-3-0--3-3-0--3-3-0--|
[ Tab from: http://www.guitartabs.cc/tabs/m/misc/roadrunner_united_army_of_the_sun_btab.html ]
D|------------------------------|
A|------------------------------|
E|--2-2-0--2-2-0--2-2-0--2-2-0--|
B|------------------------------|
 

Pre-Chorus

D|----------------------------------------------------------|
A|--2-2-0--2-2-0--2-2-0--2-2-0--3-3-0--3-3-0--3-3-0--3-3-0--|
E|----------------------------------------------------------|
B|----------------------------------------------------------|

Chorus x4

D|------------------------------------------------------------|
A|------------------------------------------------------------|
E|------------------------------------------------------------|
B|---7-7-7-7-7-7-7-7-7-7-7-7-3-3-3-3-3-3-3-3-0-0-0-0-0-0-0-0--|


BreakDown

D|---------------------------------|
A|---------------------------------|
E|----------2-2-2------------------|
B|--3-3-3-----------3-3-3---0-0-0--|

On this part, play it twice. On the second time,
kind of ride on the B|-3-|
D|--------------------------------------------|
A|--------------------------------------------|
E|--0-2-2-2---0-2-2-2-5--0-2-2-2--0-2-2-2-----|
B|-----------------------------------------3--|
 
Then the guitar solo type thing

ride on E|-0-| when it comes back in

Chorus x4
         play more aggressive than regular
D|------------------------------------------------------------|
A|------------------------------------------------------------|
E|------------------------------------------------------------|
B|---7-7-7-7-7-7-7-7-7-7-7-7-3-3-3-3-3-3-3-3-0-0-0-0-0-0-0-0--|


Outro

D|------------------|
A|------------------|
E|--2-2-2----2-2-2--|
B|------------------|

D|-----------|
A|-----------|
E|--0-2-2-2--|
B|-----------|

That's it. The whole thing. Any questions, comments, or corrections,
feel free to e-mail me. Thanks alot. plz rate.
============================================================================