Misc - Red Dwarf Theme Chords & Tabs

 

Red Dwarf Theme Chords & Tabs

Misc Chords & Tabs

Version: 1 Type: Tab 0 ratings
1 star 2 stars 3 stars 4 stars 5 stars
comments

Red Dwarf Theme Tab

Red Dwarf theme song
by chris williams

This is the intro version, the ending has vocals
this is just a big guitar solo.
written originally by howard goodall

email me at chris@takentheday,cjb.net 

In the key of C

|-------------------------------------------|
|-------------------------------------------|
|-------------------------------------------|
|-------------------------------------------|
|-----0--2--3--5--------0--2--3--5----------|
|--3----------------3-----------------------|

|------------------------7-8------------------------|
|-------8---8h10-10-8-10----------------------------|
|-----9---------------------------------------------|
|--10-----------------------------------------------|
|---------------------------------------------------|
|---------------------------------------------------|


|-------------13-12-13p12----12---------------------|
|--15-(17)-15-------------15----15-15-(17)-15-14----|
|------------------------------------------------14-|
|---------------------------------------------------|
|---------------------------------------------------|
|---------------------------------------------------|

[ Tab from: http://www.guitartabs.cc/tabs/m/misc/red_dwarf_theme_tab.html ]
|--15-(17)-15------------17--------------------|
|----------------17-(19)----(19)---------------|
|----------------------------------------------|
|-------------------hold---re-pick-------------|
|-------------------bend----here---------------|
|-------------------here-----------------------|


|------------------------------------------|
|--15-(17)-15--13-12-----------------------|
|-------------------------10-(13)-10--8-7--|
|------------------------------------------|
|------------------------------------------|
|------------------------------------------|

|------------------------------------------|
|-----------------11-11-11-11-10-----------|
|--9-10-12-10-9----------------------------|
|------------------------------------------|
|------------------------------------------|
|------------------------------------------|


|------------------------------------------|
|-----------------9--9--9--9--8------------|
|--7--9-10-9--7----------------------------|
|------------------------------------------|
|------------------------------------------|
|------------------------------------------|


|-----------|
|-----------|
|-----------|
|-----------|
|--10/------|
|-----------|


|-------------------------------------------|
|-------------------------------------------|
|---------------------------------------5---|
|---------------------------------------5---|
|-----0--2--3--5--------0--2--3--5--3---3---|
|--3----------------3-----------------------|
Comments