Misc - Red Dwarf Chords & Tabs

 

Red Dwarf Chords & Tabs

Misc Chords & Tabs

Version: 1 Type: Tab 0 ratings
1 star 2 stars 3 stars 4 stars 5 stars
comments

Red Dwarf Tab

   
i love red dwarf so i had some spare time and went to this site 

http://www.geocities.com/seven_of_nine79/tab.html and thats were i got it from

(This is right no mistakes)

s=Slide
h=Hammer On
p=Pull Off
b=Bend
v=Vibrato

NOTE: The bracketed notes are what note you need to bend to or pull off to.


E-----------|----------|----------------------|
B-----------|------8-8-|-10-10-8-10-s-12-s-13-|
G-----4-5-7-|----9-----|----------------------|
D-5-7-------|-10-------|----------------------|
A-----------|----------|----------------------|
E-----------|----------|----------------------|


E----b(17)-12-13-12-13-p(12)---------------|-------|
B-15-------------------------15-b(17)-p(15)|-14----|
G------------------------------------------|----14-|
D------------------------------------------|-------|
A------------------------------------------|-------|
E------------------------------------------|-------|
[ Tab from: http://www.guitartabs.cc/tabs/m/misc/red_dwarf_tab.html ]
E--15-b(17)-b(13)---------17----17v|----------------|
B----------------17-b(19)----17----|-15-b(16)-13--12|
G----------------------------------|----------------|
D----------------------------------|----------------|
A----------------------------------|----------------|
E----------------------------------|----------------|


E---------------|----------------18-18-18-18-18-17|
B---------------|-17-18-20-18-17------------------|
G-10-b(13)-8-7--|---------------------------------|
D---------------|---------------------------------|
A---------------|---------------------------------|
E---------------|---------------------------------|


E----------------16-16-16-16-16-16-15------|
B-15-17-18-17-15---------------------------|
G------------------------------------------|
D------------------------------------------|
A------------------------------------------|
E------------------------------------------|


E------------|--------------|---------------------||
B------------|--------------|---------------------||
G-----4-5-7--|-----4-5-7----|--5------------------||
D-5-7--------|-5-7----------|--5------------------||
A------------|--------------|--3------------------||
E------------|--------------|---------------------||


Comments