Misc - Phoenix Nights Theme Chords & Tabs

 

Phoenix Nights Theme Chords & Tabs

Misc Chords & Tabs

Version: 1 Type: Tab 0 ratings
1 star 2 stars 3 stars 4 stars 5 stars
comments

Phoenix Nights Theme Tab

Phoenix Nights Theme  Tabbed By Michael James
4/4                                                                                                                                                                                                        
E||--------------|---------------|----------------|-------------|--------------|---------------||
B||--------------|---------------|----------------|-------------|--------------|---------------||
G||--------9-7---|---------------|----------------|-------------|--------9-7---|---------------||
D||------9-----9-|-----9--10-----|-7--5---5-7-----|-------------|------9-----9-|-----9--10-----||
A||-7-10---------|-10------------|------8------8--|-5-----------|-7-10---------|-10------------||
E||--------------|---------------|----------------|-------------|--------------|---------------||

 ||--------------|---------------|----------------|------------||
 ||--------------|---------------|----------------|------------||
 ||--------------|---------------|----------9-7---|------------||
 ||-7-5---5-7-10-|-12--10-9--7-5-|--------9-----9-|-10---------||
 ||-----8--------|---------------|-8-7-10---------|------------||
 ||--------------|---------------|----------------|-------8----||


[ Tab from: http://www.guitartabs.cc/tabs/m/misc/phoenix_nights_theme_tab.html ]
Comments