Misc - Pentatonic Chords & Tabs

 

Pentatonic Chords & Tabs

Misc Chords & Tabs

Version: 1 Type: Tab 0 ratings
1 star 2 stars 3 stars 4 stars 5 stars
comments

Pentatonic Tab

E||----------------------5-8---------|------------------------|
B||------------------5-8-----8-5-----|------------------------|
G||--------------5-7-------------7-5-|------------------------|
D||----------5-7---------------------|--7-5-------------------|
A||------5-7-------------------------|------7-5---------------|
E||--5-8-----------------------------|----------8----5--------|


                                                                      
--------------------------------5-|--7-8-7-5-------------------------|
--------------------------5-7-8---|----------8-7-5-------------------|
--------------------5-7-8---------|----------------8-7-5-------------|
--------------5-6-7---------------|----------------------7-6-5-------|
--------5-6-7---------------------|----------------------------7-6-5-|
--5-7-8---------------------------|----------------------------------|


                                                         
---------------------|----------------------------------|
---------------------|----------------------------------|
---------------------|----------------------------------|
---------------------|--------------------------5-------|
---------------------|--------5-----------5-6-7---7-6-5-|
--8----7----5--------|--5-7-8---8-7-5-7-8---------------|


                                                                      
----------------------------------|----------------5-----------5-7-8-|
------------------------------5---|----------5-7-8---8-7-5-7-8-------|
------------5-----------5-7-8---8-|--7-5-7-8-------------------------|
------5-6-7---7-6-5-6-7-----------|----------------------------------|
--6-7-----------------------------|----------------------------------|
----------------------------------|----------------------------------|

[ Tab from: http://www.guitartabs.cc/tabs/m/misc/pentatonic_tab.html ]
                                                                      
--7-5-----------5-----------------|----------------------------------|
------8-7-5-7-8---8-7-5-------5---|----------------------------------|
------------------------8-7-5---8-|--7-5-----------5-----------------|
----------------------------------|------7-6-5-6-7---7-6-5-----------|
----------------------------------|------------------------7-6-5-6-7-|
----------------------------------|----------------------------------|


                                                             
-------------------------|----------------------------------|
-------------------------|----------------------------------|
-------------------------|----------------------------------|
--5----------------------|--------------------------5-------|
----7-6-5----------------|--------5-----------5-6-7---7-6-5-|
----------8-7-5----------|--5-7-8---8-7-5-7-8---------------|


                                                                      
----------------------------------|----------------5-----------5-7-8-|
------------------------------5---|----------5-7-8---8-7-5-7-8-------|
------------5-----------5-7-8---8-|--7-5-7-8-------------------------|
------5-6-7---7-6-5-6-7-----------|----------------------------------|
--6-7-----------------------------|----------------------------------|
----------------------------------|----------------------------------|


                                                                      
--7-5-----------5-----------------|----------------------------------|
------8-7-5-7-8---8-7-5-------5---|----------------------------------|
------------------------8-7-5---8-|--7-5-----------5-----------------|
----------------------------------|------7-6-5-6-7---7-6-5-----------|
----------------------------------|------------------------7-6-5-6-7-|
----------------------------------|----------------------------------|


                           
-------------------------||
-------------------------||
-------------------------||
--5----------------------||
----7-6-5----------------||
----------8-7-5----------||
Comments