Misc - Paulronny Unknown Song Chords & Tabs

 

Paulronny Unknown Song Chords & Tabs

Misc Chords & Tabs

Version: 1 Type: Tab 0 ratings
1 star 2 stars 3 stars 4 stars 5 stars
comments

Paulronny Unknown Song Tab

Something i made up late at night
[ Tab from: http://www.guitartabs.cc/tabs/m/misc/paulronny_unknown_song_tab.html ]
Guitar 1
E|------------------------|------------------------|------------------------|------------------------|--0-|
B|-------1p0--------------|-------3p1-0------------|-------1p0--------------|-------1p0-------3h1-0--|----|
G|-----------2--0-0---0h2-|--------------0-0---0h2-|-----------2--0-0---0h2-|-----------2------------|-2--|
D|------------------2-----|------------------2-----|------------------2-----|------------------------|----|
A|-0~~--------------------|------------------------|------------------------|------------------------|----|
E|------------------------|-3~~--------------------|-1~~--------------------|-3~~---------4~~--------|----| Repeat
Guitar 2
E|------------------------|------------------------|------------------------|------------------------|--5-|
B|-------5p3-1--0-0-0-0h1-|-------6p5-3--0-0-0-0h1-|-------5p3-1--0-0-0-0h1-|-------5p3-1-----6p5-3--|-3--|
G|------------------------|------------------------|------------------------|------------------------|----|
D|-2~~--------------------|------------------------|------------------------|------------------------|----|
A|------------------------|-5~~--------------------|-3~~--------------------|-5~~---------6~~--------|----|
E|------------------------|------------------------|------------------------|------------------------|----| Repeat

Think i heard it before
Comments