Misc - One Step Closer Chords & Tabs

 

One Step Closer Chords & Tabs

Misc Chords & Tabs

Version: 1 Type: Tab 0 ratings
1 star 2 stars 3 stars 4 stars 5 stars
comments

One Step Closer Tab

		my own song,its really cool,its just the start by the way.
Ricky Coff
If u hav any probs or want 2 no more then mail me at ricky911coff@hotmail.com

[ Tab from: http://www.guitartabs.cc/tabs/m/misc/one_step_closer_tab.html ]
		---------------------------------
		---------------------------------
                ---------------------------------
                -----3-------3-------6-------5---
                ---3---3---3---O---6---O---5---O-
                -1-------1-------4-------3-------	reapeat this x2						

		---------------------------------								
		-----4-------4-------------------
		---4---4---4---O-----7-------4---
  		-2-------2---------7---O---4---0-	reapeat this x2
		-----------------5-------2-------			
Comments