Misc - Old That 70s Show Theme Chords & Tabs

 

Old That 70s Show Theme Chords & Tabs

Misc Chords & Tabs

Version: 1 Type: Tab 2 ratings
1 star 2 stars 3 stars 4 stars 5 stars
comments

Old That 70s Show Theme Tab

allrighT I allready posted the new that seventies show
theme song, but then I saw an old episode.  so here's
the old theme song to that seventies show. 
If you have any corrections, then keep them to your self!
[ Tab from: http://www.guitartabs.cc/tabs/m/misc/old_that_70s_show_theme_tab.html ]
  777777  0000
      7  0    0
     7   0    0 
    7    0    0
   7      0000
intro, play once      verses: play 4 times
e-//--------------     -----------------------
b-//--------------     -----------------------
g-//------------0-     ------5--------------0
d-//-------0-1-2--     5--5--5--5------0-2-4--
a-//--0-1-2-------     5--5--3--5-0-2-3-------
e-//--------------     3--3-----3-------------
no words              hanging out...

bridge, play once
e-//-------------------------
b-//-------------------------
g-//-------------------------
d-//-5-5-4--2----5-5-4--2----
a-//-5-5-4--2----5-5-4--2----
e-//-3-3-2--0----3-3-2--0----
and nothing to do...

that thing at the end, play once
e-//----------------------
b-//----------------------
g-//------------------5---
d-//------------5--5--5--5
a-//------------5--5--3--5
e-//------------3--3-----3
     wooo-oooo!
Comments