Misc - Old Mcdonald Had A Farm Chords & Tabs

 

Old Mcdonald Had A Farm Chords & Tabs

Misc Chords & Tabs

Version: 1 Type: Tab 3 ratings
1 star 2 stars 3 stars 4 stars 5 stars
comments

Old Mcdonald Had A Farm Tab

Song: Old McDonald Had A Farm
Tabbed By: proudloser (Brad Douglas)

e-----------------------0--0------------I
B--1--1--1--------------------3--3--0---I
G-----------0--2--2--0------------------I
[ Tab from: http://www.guitartabs.cc/tabs/m/misc/old_mcdonald_had_a_farm_tab.html ]
e--------------------------0--0-----------I
B-----1--1--1--------------------3--3--0--I
G--0-----------0--2--2--0-----------------I

e-------------------------------------------------------------I
B-------1--1--1---1--1--1---1-1--1---1-1--1--1-1--1--1--1--1--I
G--0-0--------------------------------------------------------I
Comments