Misc - Old Mcdonald Chords & Tabs

 

Old Mcdonald Chords & Tabs

Misc Chords & Tabs

Version: 1 Type: Bass Tab 0 ratings
1 star 2 stars 3 stars 4 stars 5 stars
comments

Old Mcdonald Bass Tab

Song: OLD McDONALD
Tabbed by: Cuth NgpTAn

Tempo : swing
[ Tab from: http://www.guitartabs.cc/tabs/m/misc/old_mcdonald_btab.html ]
G|---------|--------|-0-0-----|--------|---------|--------|
D|-1-1-1---|--------|-----3-3-|-1h-----|-1-1-1---|--------|
A|-------1-|-3-3-1h-|---------|-----1--|-------1-|-3-3-1h-|
E|---------|--------|---------|--------|---------|--------|


G|-0-0-----|--------|
D|-----3-3-|-1h--1--|
A|---------|--------|
E|---------|--------|


  REPEAT ONCE !!!!


Thats it .....pretty simple
comments >>> snowblind_cuth@yahoo.ca
Comments