Misc - Ode To Teri Chords & Tabs

 

Ode To Teri Chords & Tabs

Misc Chords & Tabs

Version: 1 Type: Tab 1 rating
1 star 2 stars 3 stars 4 stars 5 stars
comments

Ode To Teri Tab

   
#----------------------------------PLEASE NOTE---------------------------------#
#This file is the author's own work and represents their interpretation of the #
#song. You may only use this file for private study, scholarship, or research. #
#------------------------------------------------------------------------------##

                 I wrote this as a song for my girlfriend
               youll love it just play as its written



||-------------------------1p0-------------------------1-------0---|
||-----1-------3-------1h3-----3-------------------------1-------1-|
||-------0-------0---------------0-----0-------0-----2-------2-----|
||---2-------0-------2---------------0---0-0h2---2-0-------3-------|
||-0-------2-------3-----------------------------------------------|
||---------------------------------3-------------------------------|

|-----------------------------------------------------------------|
|-----------1---------1-------0-----------3-----------1-------0---|
|-----0-------0---------0-------0-----0-----0-----------0-------0-|
|---2---0h2---------2-------0-------2---2-----2-----2-------0-----|
|-3-------------2-0-----------------------------2-0---------------|
|-------------------------3-------0-----------------------3-------|

|---------------------------------1---------------|
|---------3---------------1---------1-----1-------|
|-----0-----0---------0-----0---0-----0-----0-----|
|---2---2-----2-----3---3-----3---------3-----3---|
|---------------2-3-----------------------------3-|
|-0-----------------------------------------------|

|------------------3---------------||
|---------3----------3-----3-------||
|-----0-----0---0------0-----0-----|| repeat
|---0---0-----0----------0-----0---||
|-2------------------------------2-||
|----------------------------------||

|-------------------------------------------------0~~~~-|
|-0-----0-------0-0-----0-------0-0-------0-------------|
|---1-----2---2-----1-----2---2-----1---1---1---1~~~~~~-|
|-2---2-3---3-----2---2-3---3-----2---2-----------------|
|-------------------------------------------------------|
|---------------------------------------------0~~~~~~~~-|

|-----1-------0-----------------------1-------0-------------------|
|-------1-------1---------1-------------1-------1-----------1-----|
|---2-------2---------0-----0---0---2-------2---------0-------0---|
|-0-------3---------2---2-----2---0-------3---------2---0h2-----2-|
|-----------------3-------------------------------3---------------|
|-----------------------------------------------------------------|

|-----1-------0---------------------------------------------------|
|-------1-------1---------1-----------1-------0-----------0-------|
|---2-------2---------0-----0-----------0-------0-----0-----0---0-|
|-0-------3---------2---2-----2-----2-------0-------2---2-----2---|
|-----------------3-------------2-0-------------------------------|
|-----------------------------------------3-------0---------------|
 
|---------------------------------------------------1---------------|
|-------1-------0-----------0---------------1---------1-----1-------|
|---------0-------0-----0-----0---------0-----0---0-----0-----0-----|
|-----2-------0-------2---2-----2-----3---3-----3---------3-----3---|
|-2-0-----------------------------2-3-----------------------------3-|
|-----------3-------0-----------------------------------------------|
[ Tab from: http://www.guitartabs.cc/tabs/m/misc/ode_to_teri_tab.html ]
|-------------------------1p0-------------------------1-------0---|
|-----1-------3-------1h3-----3-------------------------1-------1-|
|-------0-------0---------------0-----0-------0-----2-------2-----|
|---2-------0-------2---------------0---0-0h2---2-0-------3-------|
|-0-------2-------3-----------------------------------------------|
|---------------------------------3-------------------------------|

|-----------------------------------------------------------------|
|-----------1---------1-------0-----------3-----------1-------0---|
|-----0-------0---------0-------0-----0-----0-----------0-------0-|
|---2---0h2---------2-------0-------2---2-----2-----2-------0-----|
|-3-------------2-0-----------------------------2-0---------------|
|-------------------------3-------0-----------------------3-------|

|---------------------------------1---------------|
|---------3---------------1---------1-----1-------|
|-----0-----0---------0-----0---0-----0-----0-----|
|---2---2-----2-----3---3-----3---------3-----3---|
|---------------2-3-----------------------------3-|
|-0-----------------------------------------------|
               
|------------------0---------------|
|---------1----------1-----1-------|
|-----0-----0---0------0-----0-----|
|---2---2-----2----------2-----2---|
|-3------------------------------3-|
|----------------------------------|

||----------------------------------------------------------------||
||---------1---------------1---------------1---------------1------||
||-----0-----0---0-----0-----0---0-----0-----0---0-----0-----0---0||
||---2---2-----2-----2---2-----2-----2---2-----2-----2---2-----2--||
||-3---------------3---------------3---------------3--------------||
||----------------------------------------------------------------||

|-------------------------3-------------------------------3-------|
|-----1-------1-------1-----1---1-----1-------1-------1-----1---1-|
|---0---0---0---0---0---0-----0-----0---0---0---0---0---0-----0---|
|-3-------2-------0---------------3-------2-------0---------------|
|-----------------------------------------------------------------|
|-----------------------------------------------------------------|

|-1-------------------------------3---------------|
|---1-----1---------------3---------3-----3-------|
|-----0-----0---------0-----0---0-----0-----0-----|
|-------3-----3-----0---0-----0---------0-----0---|
|---------------3-2-----------------------------2-|
|-------------------------------------------------|

|-------------------------------------------------0~~~~-|
|-0-----0-------0-0-----0-------0-0-------0-------------|
|---1-----2---2-----1-----2---2-----1---1---1---1~~~~~~-|
|-2---2-3---3-----2---2-3---3-----2---2-----------------|
|-------------------------------------------------------|
|---------------------------------------------0~~~~~~~~-|

|-------------------------1p0-------------------------1-------0---|
|-----1-------3-------1h3-----3-------------------------1-------1-|
|-------0-------0---------------0-----0-------0-----2-------2-----|
|---2-------0-------2---------------0---0-0h2---2-0-------3-------|
|-0-------2-------3-----------------------------------------------|
|---------------------------------3-------------------------------|

|-----------------------------------------------------------------|
|-----------1---------1-------0-----------3-----------1-------0---|
|-----0-------0---------0-------0-----0-----0-----------0-------0-|
|---2---0h2---------2-------0-------2---2-----2-----2-------0-----|
|-3-------------2-0-----------------------------2-0---------------|
|-------------------------3-------0-----------------------3-------|

|-------------------------------------------------------------------|
|---------3-----------1-------0-----------3-----------1-------0---r-|
|-----0-----0-----------0-------0-----0-----0-----------0-------0-e-|
|---2---2-----2-----2-------0-------2---0-----2-----2-------0-----s-|
|---------------2-0-----------------------------2-0---------------t-|
|-0-----------------------3-------0-----------------------3---------|
                                               slow tempo   
       
Comments