Misc - Nice Tune Chords & Tabs

 

Nice Tune Chords & Tabs

Misc Chords & Tabs

Version: 1 Type: Tab 1 rating
1 star 2 stars 3 stars 4 stars 5 stars
comments

Nice Tune Tab

Tuning:eBGDAE	        Song Name: cool tune

X4 it is upside down, I messed up(only intro)
e|-7--7--------------------------------5--5--5--5----------------------
B|-------7--7--7--7--7--7--5--5--5--5----------------------------------
G|-6--6--6--6--6--6--6--6--4--4--4--4--4--4--4--4---------------------- 
D|-8--8--8--8--8--8--8--8--6--6--6--6--6--6--6--6----------------------
A|---------------------------------------------------------------------
E|---------------------------------------------------------------------
[ Tab from: http://www.guitartabs.cc/tabs/m/misc/nice_tune_tab.html ]
e|-2--2--4--4--4--4--3--3--3------------------------------------------
B|-3--3--3--3--3--3-----------1--2--2--2--2--------------1--1--1--1---
G|-2--2--2--2--2--2--------------2--2--2--2--1--1--1--1----------------
D|----------------------------2--2--2--2--2--2--2--2--2--2--2--2--2----
A|-------------------2--2--2--3--------------2--2--2--2--3--3--3--3----
E|-------------------3--3--3-------------------------------------------

e|-2--2--2--2-----------------------------------------x--x--x--x--x--x
B|-3--3--3--3--2--2--2--2--------------1--1--1--1-----x--x--x--x--x--x
G|-2--2--2--2--2--2--2--2--1--1--1--1-----------------x--x--x--x--x--x
D|-------------2--2--2--2--2--2--2--2--2--2--2--2-----x--x--x--x--x--x
A|-------------------------2--2--2--2--3--3--3--3--2--x--x--x--x--x--x
E|-------------------------------------------------3--x--x--x--x--x--x
              X2
e|-x--x------------------------0--2—3^--------------------------------
B|-x--x------------------1--2-----------------------------------------
G|-x--x---------------------------------------------------------------
D|-x--x--------0--1—2^------------------------------------------------
A|-x--x---------------------------------------------------------------
E|-x--x--1--2---------------------------------------------------------


Comments