Misc - National Anthem Chords & Tabs

 

National Anthem Chords & Tabs

Misc Chords & Tabs

Version: 1 Type: Tab 1 rating
1 star 2 stars 3 stars 4 stars 5 stars
comments

National Anthem Tab

National Anthem

  e) -------0-4-2-0--------------------------------
  B) -0---0----------------0-0-9-7-5h7-5-4-2-4-5-5-
  G) --1-1----------1/3-4--------------------------
  D) ---2------------------------------------------
  A) ----------------------------------------------
  E) ----------------------------------------------

  e) -----------0-4-2-0----------------------------
  B) -0---0---0-0--------------0-0-9-7-5h7-5-4-2-4-
  G) --1---1-1----------1/3-4----------------------
  D) ---2---2--------------------------------------
  A) ----------------------------------------------
  E) ----------------------------------------------

[ Tab from: http://www.guitartabs.cc/tabs/m/misc/national_anthem_tab.html ]
  e) ---------4-4-4-5-7-7-5-4-2-4-5-5---5-4-2-0----
  B) -5-5-0-------------------------------------4--
  G) ------1---------------------------------------
  D) -------2--------------------------------------
  A) ----------------------------------------------
  E) ----------------------------------------------


  e) -----------------------------2-5^5------------
  B) -2-4-5-----------5-5-542-2-2-------9-7-5/4----
  G) --------1-3-4—--4-----------------------------
  D) ----------------------------------------------
  A) ----------------------------------------------
  E) ----------------------------------------------

  e) ----------------------------------------------
  B) -0-0-5-7-9-(10)-(12)-- 5-7-9---(10)-7-5-------
  G) ----------------------------------------------
  D) ----------------------------------------------
  A) ----------------------------------------------
  E) ----------------------------------------------
Comments