Misc - My Heart Will Go On Chords & Tabs

 

My Heart Will Go On Chords & Tabs

Misc Chords & Tabs

Version: 1 Type: Tab 1 rating
1 star 2 stars 3 stars 4 stars 5 stars
comments

My Heart Will Go On Tab

   
"My Heart Will Go On"
In the key of G
I guess every note is the same note length... maintain a constant rhythm 
and you'll hear what you want.  The chords are guides for your fingers, 
but they aren't exact.  Refer to tab for exact playing.  My email is 
jaybar36@hotmail.com if you want me to send you the MP3 of how it's played.

   G               D               C               G       D        
e|-3-----3-3---3---2---3-------2---2---3-------5---7-------5-----------|
B|-----3-----------------3---3-----------1---1-------8-------7---------|
G|---0-------0---0---2-----2-----2---0-----0-----0-----7-------7-------|
D|-----------------0-------------------------------0-----0-0-----0-----|
A|---------------------------------3---3-------5-----------------------|
E|-3-------3-----------------------------------------------------------|

   G               D               Cadd9                     D
e|-3-----3-3---3---2---3-------2-------------------------0---2---------|
B|-----3-----------------3---3-----3-----3-----3---3-----3---3---------|
G|---0-------0---0---2-----2-----0---0-----0-----0-----0---0---2-------|
D|-----------------0-------------------2-----2-------2-----------------|
A|---------------------------------3---------------3-------------------|
E|-3-------3-----------------------------------------------------------|

   G               D               C               G       D        
e|-3-----3-3---3---2---3-------2---2---3-------5---7-------5-----------|
B|-----3-----------------3---3-----------1---1-------8-------7---------|
G|---0-------0---0---2-----2-----2---0-----0-----0-----7-------7-------|
D|-----------------0-------------------------------0-----0-0-----0-----|
A|---------------------------------3---3-------5-----------------------|
E|-3-------3-----------------------------------------------------------|

   G               D               Cadd9                     
e|-3-----3-3---3---2---3-------2---------------------------------------|
B|-----3-----------------3---3-----3-----3-----3---3---3-1---0---0-----|
G|---0-------0---0---2-----2-----0---0-----0-----0-------------0-------|
D|-----------------0-------------------2-----2-------2-----2-----------|
A|---------------------------------3---------------3---3-3---3---------|
E|-3-------3-----------------------------------------------------------|

   Em            D                     C     G   D     G     C     
e|-0-------0-----2-------2-----10------8-----7---5-----7-----8---------|
B|-----0-------0-----3-------3----10-----8---------7-----8-------------|
G|---0-------0-----2-------2---------9-----7---7-----7-----7---7-------|
D|---------------0-----0-------0-------0-----0---0-----0-----0---------|
A|---------------------------------------------------------------------|
E|-0-----0-------------------------------------------------------------|

   G     D     G   D               C             D
e|-7-----5-----3---2-----3-----2---0-------0-----2-------2-------------|
B|---8-----7-----------3-----3---------2-------2-----3-------3---------|
G|-----7-----7---0---2-----2-----2---0-------0-----2-------2-----------|
D|-0-----0---------0-----0-----0-----------------0-----0---------------|
A|---------------------------------3-----3-----------------------------|
E|-------------3-------------------------------------------------------|

   Em            D                     C     G   D     G     C     
e|-0-------0-----2---2h3p2-------2---10------8-----7---5-----7-----8---|
B|-----0-------0-----3-----3-----3------10-----8---------7-----8-------|
G|---0-------0-----2-----------2---2-------9-----7---7-----7-----7---7-|
D|---------------0-----------0-------0-------0-----0---0-----0-----0---|
A|---------------------------------------------------------------------|
E|-0-----0-------------------------------------------------------------|
[ Tab from: http://www.guitartabs.cc/tabs/m/misc/my_heart_will_go_on_tab.html ]
   G     D     G   D               C             D
e|-7-----5-----3---2-----3-----2---0-------0-----2-------2-------------|
B|---8-----7-----------3-----3---------2-------2-----3-------3---------|
G|-----7-----7---0---2-----2-----2---0-------0-----2-------2-----------|
D|-0-----0---------0-----0-----0-----------------0-----0---------------|
A|---------------------------------3-----3-----------------------------|
E|-------------3-------------------------------------------------------|

   G               D               C               G       D        
e|-3-----3-3---3---2---3-------2---2---3-------5---7-------5-----------|
B|-----3-----------------3---3-----------1---1-------8-------7---------|
G|---0-------0---0---2-----2-----2---0-----0-----0-----7-------7-------|
D|-----------------0-------------------------------0-----0-0-----0-----|
A|---------------------------------3---3-------5-----------------------|
E|-3-------3-----------------------------------------------------------|

   G               D               Cadd9                     D
e|-3-----3-3---3---2---3-------2-------------------------0---2---------|
B|-----3-----------------3---3-----3-----3-----3---3-----3---3---------|
G|---0-------0---0---2-----2-----0---0-----0-----0-----0---0---2-------|
D|-----------------0-------------------2-----2-------2-----------------|
A|---------------------------------3---------------3-------------------|
E|-3-------3-----------------------------------------------------------|

   G               D               C               G       D        
e|-3-----3-3---3---2---3-------2---2---3-------5---7-------5-----------|
B|-----3-----------------3---3-----------1---1-------8-------7---------|
G|---0-------0---0---2-----2-----2---0-----0-----0-----7-------7-------|
D|-----------------0-------------------------------0-----0-0-----0-----|
A|---------------------------------3---3-------5-----------------------|
E|-3-------3-----------------------------------------------------------|

   G               D               Cadd9                     
e|-3-----3-3---3---2---3-------2---------------------------------------|
B|-----3-----------------3---3-----3-----3-----3---3---3-1---0---0-----|
G|---0-------0---0---2-----2-----0---0-----0-----0-------------0-------|
D|-----------------0-------------------2-----2-------2-----2-----------|
A|---------------------------------3---------------3---3-3---3---------|
E|-3-------3-----------------------------------------------------------|

   Em            D                     C     G   D     G     C     
e|-0-------0-----2-------2-----10------8-----7---5-----7-----8---------|
B|-----0-------0-----3-------3----10-----8---------7-----8-------------|
G|---0-------0-----2-------2---------9-----7---7-----7-----7---7-------|
D|---------------0-----0-------0-------0-----0---0-----0-----0---------|
A|---------------------------------------------------------------------|
E|-0-----0-------------------------------------------------------------|

   G     D     G   D               C             D
e|-7-----5-----3---2-----3-----2---0-------0-----2-------2-------------|
B|---8-----7-----------3-----3---------2-------2-----3-------3---------|
G|-----7-----7---0---2-----2-----2---0-------0-----2-------2-----------|
D|-0-----0---------0-----0-----0-----------------0-----0---------------|
A|---------------------------------3-----3-----------------------------|
E|-------------3-------------------------------------------------------|

   Em            D                     C     G   D     G     C     
e|-0-------0-----2---2h3p2-------2---10------8-----7---5-----7-----8---|
B|-----0-------0-----3-----3-----3------10-----8---------7-----8-------|
G|---0-------0-----2-----------2---2-------9-----7---7-----7-----7---7-|
D|---------------0-----------0-------0-------0-----0---0-----0-----0---|
A|---------------------------------------------------------------------|
E|-0-----0-------------------------------------------------------------|

   G     D     G   D                            
e|-7-----5-----3---2-----3-----2---2-----3-----5---7-----7-5-----5-----|
B|---8-----7-----------3-----3---------3-----3---------8-------7---7---|
G|-----7-----7---0---2-----2-----2---2-----2-----2---7-------7-------7-|
D|-0-----0---------0-----0-----0---0-----0-----0---0-------0-----------|
A|---------------------------------------------------------------------|
E|-------------3-------------------------------------------------------|

End on a slow strum G (320033).  That last measure is just how you end it.  
It can go on forever.  Feel free to email me with questions and stuff.
Comments