Misc - Munster Rag By Brad Paisley Chords & Tabs

 

Munster Rag By Brad Paisley Chords & Tabs

Misc Chords & Tabs

Version: 1 Type: Tab 0 ratings
1 star 2 stars 3 stars 4 stars 5 stars
comments

Munster Rag By Brad Paisley Tab

This is an instrumental by Brad Paisley.

INTRO":
E----------------------------------------------------------------
B----------------------------------------------------------------
G----------------------------------------------------------------
D----------------------------------------------------------------
A--------0-2--------0-2--------0-2-0----2-0-----------------------
E--0-2-3------0-2-3------0-2-3--------3------2-3------------------

[ Tab from: http://www.guitartabs.cc/tabs/m/misc/munster_rag_by_brad_paisley_tab.html ]
E------------------------------------------------------------------
B------------------------------------------------------------------
G------------------------------------------------------------------
D------------------------------------------------------------------
A---------0-2---------0-2---------0-2-0----2-0----------------------
E--0-2-3-------0-2-3-------0-2-3---------3------2-0-----------------
                                 
                                                       REPEAT 1x


ENDING":

E-----------------------------------------------------------------
B-----------------------------------------------------------------
G-----------------------------------------------------------------
D------------7-----------------------------------------------------
A--------6-7----8-7-5--5-5-7---------------------------------------
E--5-8-5-----------------------0-0-2-2-4-5-------------------------


Play really fast and listen to song for rhythm...

Comments