Misc - Mortal Kombat Theme Chords & Tabs

 

Mortal Kombat Theme Chords & Tabs

Misc Chords & Tabs

Version: 1 Type: Tab 1 rating
1 star 2 stars 3 stars 4 stars 5 stars
comments

Mortal Kombat Theme Tab

Song: Mortal Kombat Theme
Tabbed By: Tim Barr
MX ID: SpADeD
Date: 1/25/04

Guitar 1:                                                                
E||--------------------0-----|--------0-----3-----0-----|
B||--------1-----3--------3--|--1--1-----1-----1-----1--|
G||--2--2-----2-----2--------|--------------------------|
D||--------------------------|--------------------------|
A||--------------------------|--------------------------|
E||--------------------------|--------------------------|


                                                      
--------------------------|--------------------------|
--------0-----1-----3--1--|--------------1-----1--0--|
--0--0-----0-----0--------|--------2-----------------|
--------------------------|--3--3-----3-----3--------|
--------------------------|--------------------------|
--------------------------|--------------------------|


                                                      
--------------------0-----|--------0-----3-----0-----|
--------1-----3--------3--|--1--1-----1-----1-----1--|
--2--2-----2-----2--------|--------------------------|
--------------------------|--------------------------|
--------------------------|--------------------------|
--------------------------|--------------------------|


                                                                              
--------------------------|--------------------------|
--------0-----1-----3--1--|--------------1-----1--0--|
--0--0-----0-----0--------|--------2-----------------|
--------------------------|--3--3-----3-----3--------|
--------------------------|--------------------------|
--------------------------|--------------------------|

                                                                 
--23----23----23----23----|
--22----22----22----22----|
--20----20----20----20----|
--------------------------|
--------------------------|
--------------------------|

                                                                 
|--------------------0-----|
|--------1-----3--------3--|
|--2--2-----2-----2--------|
|--------------------------|
|--------------------------|
|--------------------------|


                                                      
--------0-----3-----0-----|--------------------------|
--1--1-----1-----1-----1--|--------0-----1-----3--1--|
--------------------------|--0--0-----0-----0--------|
--------------------------|--------------------------|
--------------------------|--------------------------|
--------------------------|--------------------------|


                                                      
--------------------------|--------------------0-----|
--------------1-----1--0--|--------1-----3--------3--|
--------2-----------------|--2--2-----2-----2--------|
--3--3-----3-----3--------|--------------------------|
--------------------------|--------------------------|
--------------------------|--------------------------|


                                                      
--------0-----3-----0-----|--------------------------|
--1--1-----1-----1-----1--|--------0-----1-----3--1--|
--------------------------|--0--0-----0-----0--------|
--------------------------|--------------------------|
--------------------------|--------------------------|
--------------------------|--------------------------|

                                                                 
--------------------------|
--------------1-----1--0--|
--------2-----------------|
--3--3-----3-----3--------|
--------------------------|
--------------------------|
                            

                                                                       
|----17----15----13----12----10--|
|--------------------------------|
|--------------------------------|
|--------------------------------|
|--------------------------------|
|--------------------------------|


                                                                  
----17----15----13----12----10--|----17----15----13----12----10--|
--------------------------------|--------------------------------|
--------------------------------|--------------------------------|
--------------------------------|--------------------------------|
--------------------------------|--------------------------------|
--------------------------------|--------------------------------|


                                                               
----12----10----8----7----5--|----17----15----13----12----10--|
-----------------------------|--------------------------------|
-----------------------------|--------------------------------|
-----------------------------|--------------------------------|
-----------------------------|--------------------------------|
-----------------------------|--------------------------------|


                                                                  
----17----15----13----12----10--|----17----15----13----12----10--|
--------------------------------|--------------------------------|
--------------------------------|--------------------------------|
--------------------------------|--------------------------------|
--------------------------------|--------------------------------|
--------------------------------|--------------------------------|


                                                         
----12----10----8----7----5--|--------------------0-----|
-----------------------------|--------------------------|
-----------------------------|--------5-----7--------7--|
-----------------------------|--7--7-----7-----7--------|
-----------------------------|--------------------------|
-----------------------------|--------------------------|


                                                      
--------------3-----------|--------------------------|
--------5-----------5-----|--------------------3-----|
--5--5-----5-----5-----5--|--------4-----5--------5--|
--------------------------|--5--5-----5-----5--------|
--------------------------|--------------------------|
--------------------------|--------------------------|


                                                      
--------------------------|--------------------0-----|
--------------1-----1--0--|--------1-----3--------3--|
--------2-----------------|--2--2-----2-----2--------|
--3--3-----3-----3--------|--------------------------|
--------------------------|--------------------------|
--------------------------|--------------------------|


                                                      
--------0-----3-----0-----|--------------------------|
--1--1-----1-----1-----1--|--------0-----1-----3--1--|
--------------------------|--0--0-----0-----0--------|
--------------------------|--------------------------|
--------------------------|--------------------------|
--------------------------|--------------------------|


                                                                 
--------------------------|
--------------1-----1--0--|
--------2-----------------|
--3--3-----3-----3--------|
--------------------------|
--------------------------|



                                                                               
|--23----23----23----23----|--------------------------------|
|--22----22----22----22----|----22----20----18----17----15--|
|--20----20----20----20----|--------------------------------|
|--------------------------|--------------------------------|
|--------------------------|--------------------------------|
|--------------------------|--------------------------------|


                                                                  
----17----15----13----12----10--|----17----15----13----12----10--|
--------------------------------|--------------------------------|
--------------------------------|--------------------------------|
--------------------------------|--------------------------------|
--------------------------------|--------------------------------|
--------------------------------|--------------------------------|


                                                               
----12----10----8----7----5--|----17----15----13----12----10--|
-----------------------------|--------------------------------|
-----------------------------|--------------------------------|
-----------------------------|--------------------------------|
-----------------------------|--------------------------------|
-----------------------------|--------------------------------|


                                                                  
----17----15----13----12----10--|----17----15----13----12----10--|
--------------------------------|--------------------------------|
--------------------------------|--------------------------------|
--------------------------------|--------------------------------|
--------------------------------|--------------------------------|
--------------------------------|--------------------------------|


                                                         
----12----10----8----7----5--|--------------------0-----|
-----------------------------|--------------------------|
-----------------------------|--------5-----7--------7--|
-----------------------------|--7--7-----7-----7--------|
-----------------------------|--------------------------|
-----------------------------|--------------------------|


                                                      
--------------3-----------|--------------------------|
--------5-----------5-----|--------------------3-----|
--5--5-----5-----5-----5--|--------4-----5--------5--|
--------------------------|--5--5-----5-----5--------|
--------------------------|--------------------------|
--------------------------|--------------------------|


                                                      
--------------------------|--------------------0-----|
--------------1-----1--0--|--------1-----3--------3--|
--------2-----------------|--2--2-----2-----2--------|
--3--3-----3-----3--------|--------------------------|
--------------------------|--------------------------|
--------------------------|--------------------------|


                                                      
--------0-----3-----0-----|--------------------------|
--1--1-----1-----1-----1--|--------0-----1-----3--1--|
--------------------------|--0--0-----0-----0--------|
--------------------------|--------------------------|
--------------------------|--------------------------|
--------------------------|--------------------------|


                                                                 
--------------------------|
--------------1-----1--0--|
--------2-----------------|
--3--3-----3-----3--------|
--------------------------|
--------------------------|


                                                                            

                                                      
--------------------0-----|--------0-----3-----0-----|
--------1-----3--------3--|--1--1-----1-----1-----1--|
--2--2-----2-----2--------|--------------------------|
--------------------------|--------------------------|
--------------------------|--------------------------|
--------------------------|--------------------------|


                                                      
--------------------------|--------------------------|
--------0-----1-----3--1--|--------------1-----1--0--|
--0--0-----0-----0--------|--------2-----------------|
--------------------------|--3--3-----3-----3--------|
--------------------------|--------------------------|
--------------------------|--------------------------|


                                                      
--------------------0-----|--------0-----3-----0-----|
--------1-----3--------3--|--1--1-----1-----1-----1--|
--2--2-----2-----2--------|--------------------------|
--------------------------|--------------------------|
--------------------------|--------------------------|
--------------------------|--------------------------|


                                                                           
--------------------------|--------------------------||
--------0-----1-----3--1--|--------------1-----1--0--||
--0--0-----0-----0--------|--------2-----------------||
--------------------------|--3--3-----3-----3--------||
--------------------------|--------------------------||
--------------------------|--------------------------||

Guitar 2:                                                                                                                                                                                                                             
E||--5---5---5---5---3--8--|--5---5---5---5---3--0--|
B||------------------------|------------------------|
G||------------------------|------------------------|
D||------------------------|------------------------|
A||------------------------|------------------------|
E||------------------------|------------------------|


                                                                            
--5---5---5---5---3--8--|--5---5---5--5-5--5-5----|--5---5---5---5---3--8--|
------------------------|-------------------------|------------------------|
------------------------|-------------------------|------------------------|
------------------------|-------------------------|------------------------|
------------------------|-------------------------|------------------------|
------------------------|-------------------------|------------------------|


                                                                            
--5---5---5---5---3--0--|--5---5---5---5---3--8--|--5---5---5--5-5--5-5----|
------------------------|------------------------|-------------------------|
------------------------|------------------------|-------------------------|
------------------------|------------------------|-------------------------|
------------------------|------------------------|-------------------------|
------------------------|------------------------|-------------------------|


                                                                             
--5-12-----8------------8------------|-----12-----8------------8------------|
--------10----10-11--10----10-11-----|--10-----10----10-11--10----10-11-----|
---------------------------------12--|----------------------------------12--|
-------------------------------------|--------------------------------------|
-------------------------------------|--------------------------------------|
-------------------------------------|--------------------------------------|


                                                                      
-----12-----8------------8------------|-----12-----8---------5--5----|
--10-----10----10-11--10----10-11-----|--10-----10----8-8--8---------|
----------------------------------12--|------------------------------|
--------------------------------------|------------------------------|
--------------------------------------|------------------------------|
--------------------------------------|------------------------------|

[ Tab from: http://www.guitartabs.cc/tabs/m/misc/mortal_kombat_theme_tab.html ]
                                                                             
--5-12-----8------------8------------|-----12-----8------------8------------|
--------10----10-11--10----10-11-----|--10-----10----10-11--10----10-11-----|
---------------------------------12--|----------------------------------12--|
-------------------------------------|--------------------------------------|
-------------------------------------|--------------------------------------|
-------------------------------------|--------------------------------------|


                                                                             
-----12-----8------------8------------|
--10-----10----10-11--10----10-11-----|
----------------------------------12--|
--------------------------------------|
--------------------------------------|
--------------------------------------|

                                                                            
                                                                           
--5---5---5---5---3--8--|--5---5---5---5---3--0--|--5---5---5---5---3--8--|
------------------------|------------------------|------------------------|
------------------------|------------------------|------------------------|
------------------------|------------------------|------------------------|
------------------------|------------------------|------------------------|
------------------------|------------------------|------------------------|


                                                                            
--5---5---5--5-5--5-5----|--5---5---5---5---3--8--|--5---5---5---5---3--0--|
-------------------------|------------------------|------------------------|
-------------------------|------------------------|------------------------|
-------------------------|------------------------|------------------------|
-------------------------|------------------------|------------------------|
-------------------------|------------------------|------------------------|


                                                   
--5---5---5---5---3--8--|--5---5---5--5-5--5-5----|
------------------------|-------------------------|
------------------------|-------------------------|
------------------------|-------------------------|
------------------------|-------------------------|
------------------------|-------------------------|


                                                                             
--5-12-----8------------8------------|-----12-----8------------8------------|
--------10----10-11--10----10-11-----|--10-----10----10-11--10----10-11-----|
---------------------------------12--|----------------------------------12--|
-------------------------------------|--------------------------------------|
-------------------------------------|--------------------------------------|
-------------------------------------|--------------------------------------|


                                                                      
-----12-----8------------8------------|-----12-----8---------5--5----|
--10-----10----10-11--10----10-11-----|--10-----10----8-8--8---------|
----------------------------------12--|------------------------------|
--------------------------------------|------------------------------|
--------------------------------------|------------------------------|
--------------------------------------|------------------------------|


                                                                             
--5-12-----8------------8------------|-----12-----8------------8------------|
--------10----10-11--10----10-11-----|--10-----10----10-11--10----10-11-----|
---------------------------------12--|----------------------------------12--|
-------------------------------------|--------------------------------------|
-------------------------------------|--------------------------------------|
-------------------------------------|--------------------------------------|


                                                                      
-----12-----8------------8------------|-----12-----8---------5--5----|
--10-----10----10-11--10----10-11-----|--10-----10----8-8--8---------|
----------------------------------12--|------------------------------|
--------------------------------------|------------------------------|
--------------------------------------|------------------------------|
--------------------------------------|------------------------------|
                                                                            

                                                                           
--5---5---5---5---3--8--|--5---5---5---5---3--0--|--5---5---5---5---3--8--|
------------------------|------------------------|------------------------|
------------------------|------------------------|------------------------|
------------------------|------------------------|------------------------|
------------------------|------------------------|------------------------|
------------------------|------------------------|------------------------|


                                                                            
--5---5---5--5-5--5-5----|--5---5---5---5---3--8--|--5---5---5---5---3--0--|
-------------------------|------------------------|------------------------|
-------------------------|------------------------|------------------------|
-------------------------|------------------------|------------------------|
-------------------------|------------------------|------------------------|
-------------------------|------------------------|------------------------|


                                                   
--5---5---5---5---3--8--|--5---5---5--5-5--5-5----|
------------------------|-------------------------|
------------------------|-------------------------|
------------------------|-------------------------|
------------------------|-------------------------|
------------------------|-------------------------|


                                                                             
--5-12-----8------------8------------|-----12-----8------------8------------|
--------10----10-11--10----10-11-----|--10-----10----10-11--10----10-11-----|
---------------------------------12--|----------------------------------12--|
-------------------------------------|--------------------------------------|
-------------------------------------|--------------------------------------|
-------------------------------------|--------------------------------------|


                                                                      
-----12-----8------------8------------|-----12-----8---------5--5----|
--10-----10----10-11--10----10-11-----|--10-----10----8-8--8---------|
----------------------------------12--|------------------------------|
--------------------------------------|------------------------------|
--------------------------------------|------------------------------|
--------------------------------------|------------------------------|


                                                                             
--5-12-----8------------8------------|-----12-----8------------8------------|
--------10----10-11--10----10-11-----|--10-----10----10-11--10----10-11-----|
---------------------------------12--|----------------------------------12--|
-------------------------------------|--------------------------------------|
-------------------------------------|--------------------------------------|
-------------------------------------|--------------------------------------|


                                                                             
-----12-----8------------8------------|
--10-----10----10-11--10----10-11-----|
----------------------------------12--|
--------------------------------------|
--------------------------------------|
--------------------------------------|

                                                                            
                                                                           
--5---5---5---5---3--8--|--5---5---5---5---3--0--|--5---5---5---5---3--8--|
------------------------|------------------------|------------------------|
------------------------|------------------------|------------------------|
------------------------|------------------------|------------------------|
------------------------|------------------------|------------------------|
------------------------|------------------------|------------------------|


                                                                            
--5---5---5--5-5--5-5----|--5---5---5---5---3--8--|--5---5---5---5---3--0--|
-------------------------|------------------------|------------------------|
-------------------------|------------------------|------------------------|
-------------------------|------------------------|------------------------|
-------------------------|------------------------|------------------------|
-------------------------|------------------------|------------------------|


                                                   
--5---5---5---5---3--8--|--5---5---5--5-5--5-5----|
------------------------|-------------------------|
------------------------|-------------------------|
------------------------|-------------------------|
------------------------|-------------------------|
------------------------|-------------------------|


                                                                             
--5-12-----8------------8------------|-----12-----8------------8------------|
--------10----10-11--10----10-11-----|--10-----10----10-11--10----10-11-----|
---------------------------------12--|----------------------------------12--|
-------------------------------------|--------------------------------------|
-------------------------------------|--------------------------------------|
-------------------------------------|--------------------------------------|


                                                                      
-----12-----8------------8------------|-----12-----8---------5--5----|
--10-----10----10-11--10----10-11-----|--10-----10----8-8--8---------|
----------------------------------12--|------------------------------|
--------------------------------------|------------------------------|
--------------------------------------|------------------------------|
--------------------------------------|------------------------------|


                                                                             
--5-12-----8------------8------------|-----12-----8------------8------------|
--------10----10-11--10----10-11-----|--10-----10----10-11--10----10-11-----|
---------------------------------12--|----------------------------------12--|
-------------------------------------|--------------------------------------|
-------------------------------------|--------------------------------------|
-------------------------------------|--------------------------------------|


                                                                      
-----12-----8------------8------------|-----12-----8---------5--5----|
--10-----10----10-11--10----10-11-----|--10-----10----8-8--8---------|
----------------------------------12--|------------------------------|
--------------------------------------|------------------------------|
--------------------------------------|------------------------------|
--------------------------------------|------------------------------|


                                                                    
--5-12-----8---------5--5----|
--------10----8-8--8---------|
-----------------------------|
-----------------------------|
-----------------------------|
-----------------------------|


                                                                            
Guitar 3:
------------------|--13----------------|------------------|--12----------------|
------------------|--15----------------|------------------|--13----------------|
------------------|--14----------------|------------------|--14----------------|
------------------|--------------------|------------------|--------------------|
------------------|--------------------|------------------|--------------------|
------------------|--------------------|------------------|--------------------|


                                                                                
------------------|--13----------------|------------------|--12----------------|
------------------|--15----------------|------------------|--13----------------|
------------------|--14----------------|------------------|--14----------------|
------------------|--------------------|------------------|--------------------|
------------------|--------------------|------------------|--------------------|
------------------|--------------------|------------------|--------------------|


------------------|--13----------------|------------------|--12----------------|
------------------|--15----------------|------------------|--13----------------|
------------------|--14----------------|------------------|--14----------------|
------------------|--------------------|------------------|--------------------|
------------------|--------------------|------------------|--------------------|
------------------|--------------------|------------------|--------------------|

                                                                                
------------------|--13----------------|------------------|--12----------------|
------------------|--15----------------|------------------|--13----------------|
------------------|--14----------------|------------------|--14----------------|
------------------|--------------------|------------------|--------------------|
------------------|--------------------|------------------|--------------------|
------------------|--------------------|------------------|--------------------|


------------------|--13----------------|------------------|--12----------------|
------------------|--15----------------|------------------|--13----------------|
------------------|--14----------------|------------------|--14----------------|
------------------|--------------------|------------------|--------------------|
------------------|--------------------|------------------|--------------------|
------------------|--------------------|------------------|--------------------|


                                                                                
------------------|--13----------------|------------------|--12----------------|
------------------|--15----------------|------------------|--13----------------|
------------------|--14----------------|------------------|--14----------------|
------------------|--------------------|------------------|--------------------|
------------------|--------------------|------------------|--------------------|
------------------|--------------------|------------------|--------------------|



------------------|------------------|--12----------------|--------------------|
------------------|------------------|--13----------------|--------------------|
------------------|------------------|--14----------------|--12----------------|
------------------|------------------|--------------------|--------------------|
------------------|------------------|--------------------|--------------------|
------------------|------------------|--------------------|--------------------|


                                                              
--10----------------|--8------------------|
--12----------------|--10-----------------|
--------------------|--10-----------------|
--------------------|---------------------|
--------------------|---------------------|
--------------------|---------------------|
Comments