Misc - Mormon Hymns - The Spirit Of God Chords & Tabs

 

Mormon Hymns - The Spirit Of God Chords & Tabs

Misc Chords & Tabs

Version: 1 Type: Tab 0 ratings
1 star 2 stars 3 stars 4 stars 5 stars
comments

Mormon Hymns - The Spirit Of God Tab

   
Title: The Spirit of God

Instrument: 6 String Guitar
Tabbed by: Mormon_metalhead (mormon_metalhead at hotmail.com)
Tuning: Standard (E A D G B E)

[ Tab from: http://www.guitartabs.cc/tabs/m/misc/mormon_hymns_the_spirit_of_god_tab.html ]
E|-------------------------------------------------------------------||
B|-------------------------------------------------------------------||
G|------2--2--4---2--0-----------------------------------------------||
D|-0-5------------------5p3----0h2-0---------------------------------||
A|-------------------------------------------------------------------||
E|-------------------------------------------------------------------||
  The sprit of god like a fire is burning
E|-------------------------------------------------------------------||
B|-------------------------------------------------------------------||
G|-----------4---2--------5---4p2---0--------------------------------||
D|--------5---------0--2----------------3--5-------------------------||
A|-3-2h5-------------------------------------------------------------||
E|-------------------------------------------------------------------||
  The latter day glory begins to come forth
E|-------------------------------------------------------------------||
B|-------------------------------------------------------------------||
G|------2-2-4-2-----------------------4-2-----5-4-2------------------||
D|--0-5---------5-5-3-2-0h2-0-------5-----0-2-------5-3-0------------||
A|----------------------------3-2h5----------------------------------||
E|-------------------------------------------------------------------||
 The visions and blessings of old are returning, And angels are coming to visit the earth.
E|-------------------------------------------------------------------||
B|-------------------------------------------------------------------||
G|--------------0h4-2-0-----------0-2-4-----0-5-4-2-2----------------||
D|--0-0---0---0---------3p2--0230-------2-3--------------------------||
A|------2---2--------------------------------------------------------||
E|-------------------------------------------------------------------||
  We'll sing and we'll shout with the armies of heaven, Hosanna, hosanna to god and the lamb!
E|-------------------------------------------------------------------||
B|-------------------------------------------------------------------||
G|--2-4p0-2-4---5-4-2h4-4-0----------0h2-420----5-4-2-0------0-------||
D|------------2-------------3p2-0230--------3--2---------3-3---------||
A|-------------------------------------------------------------------||
E|-------------------------------------------------------------------||
Let glory to them in the highest be given, Henceforth and forever, Amen and amen!
Comments