Misc - Moonlight Densetsu Sailor Moon Chords & Tabs

 

Moonlight Densetsu Sailor Moon Chords & Tabs

Misc Chords & Tabs

Version: 1 Type: Tab 0 ratings
1 star 2 stars 3 stars 4 stars 5 stars
comments

Moonlight Densetsu Sailor Moon Tab

   
Moonlight Densetsu
Sung by: Dali and Moon Lips
Artist: Pretty Soldier Sailor Moon

As performed on the openening credits of Pretty Soldier Sailor Moon

Tabbed by Mitch Best


I can't believe that no one out there has tabbed this version of the Pretty 
Soldier Sailor Moon theme music until now.  This shit is done to the best of 
my ability and is the final version.  If something is wrong let me know
at unholyfactions@aol.com or fix it yourself.  It goes in that order too just
listen to the song a few times to get it down. Lyrics added only for refrence to 
where vocals start and stop. 

LEGAL
I don't care if people want to print it out or slap it on their site, the music 
isn't mine.  What i do care about is people removing my name and using theirs.  
If you want recognition write your version of the song.  Also any titles, lyrics,
and names used in this tab are copyrighted to their respective companies.

Standard Tune (E,A,D,G,B,E)

~  - vibrate
/  - slide to next note
s/ - slide up



INTRO

Riff 1

E|------------|----------------------------------------|
B|------------|----------------------------------------|
G|------------|------------7--------------8---8---7----|
D|--4~~/------|--3---4-----7----11----7---8---8---7----|
A|------------|--3---4-----5----11----7---8---6---5----|
E|------------|--1---2----------9-----5---6------------|



Riff 2

E|-----7-----7-----5---3----2----5----|-----5-----5------3----2---0---3----|
B|-----0-----0-----0---0----0----0----|-----0-----0------0----0---0---0----|
G|------------------------------------|------------------------------------|
D|------------------------------------|------------------------------------|
A|------------------------------------|------------------------------------|
E|------------------------------------|------------------------------------|
 |                                                                         
 |                                                                                          
 |                                                                             
E|-----------------0------------------|-----0--0--0--0---------------------|
B|-----------------2------------------|-----2--2--2--2---------------------|
G|-----4--4--4--4--2------------------|-----2--2--2--2---------------------|
D|-----4--4--4--4--2---5----4----7----|-----2--2--2--2---5----4-------5----|
A|-----2--2--2--2--0---5----4----7----|-----0--0--0--0---5----4---2---5----|
E|--0------------------3----2----5----|--0---------------3----2---0---3----|




Riff 3

E|---------10--9--------9--8------------8----7--|--7----5----3----2----0--|
B|-----7-------------7------------7-----0----0--|--0----0----0----0----0--|
G|--8-------------8------------8----------------|-------------------------|
D|----------------------------------------------|-------------------------|
A|----------------------------------------------|-------------------------|
E|----------------------------------------------|-------------------------|         
 |                                                                                
 |                                                                                    
 |                                                                                  
E|-------------------------------------------0--|-------0-----------------|
B|-------------------------------------------2--|-------2-----------------|
G|---------9------------7---------------4----2--|--4----2-----------------|
D|-----9------9------7-----7------5-----4----2--|--4----2----5----4-------|
A|--7-------------5------------3--------2----0--|--2----0----5----4----2--|
E|----------------------------------------------|------------3----2----0--|

VERSE

Riff 1

E|--0----7----7----5----3----3/4--2----5---|--0----5----5----3----2----0----3--|
B|--0----0----0----0----0---------0----0---|--0----0----0----0----0----0----0--|
G|-----------------------------------------|-----------------------------------|
D|-----------------------------------------|-----------------------------------|
A|-----------------------------------------|-----------------------------------|
E|-----------------------------------------|-----------------------------------|
 |                                                                                 
 |  Go - men  ne  sun - ao   ja  nak - ute   Yume no  naka  na - ra   ie - ru                                                            
 |                                                                                 
E|-----------------0-----------------------|-------0----0----------------------|
B|-----------------2-----------------------|-------2----2----------------------|
G|-------4----4----2-----------------------|-------2----2----------------------|
D|-------4----4----2----5----5----4---7----|-------2----2----5----4---------5--|
A|-------2----2----0----5----5----4---7----|-------0----0----5----4----2----5--|
E|--0-------------------3----3----2---5----|--0--------------3----2----0----3--|


Riff 2
[ Tab from: http://www.guitartabs.cc/tabs/m/misc/moonlight_densetsu_sailor_moon_tab.html ]
E|--0----7----7----5----3----3----2----5---|--0----5----5----3----2----0----3-----------------8--|
B|--0----0----0----0----0----0----0----0---|--0----0----0----0----0----0----0-----------------8--|
G|-----------------------------------------|--------------------------------------------------8--|
D|-----------------------------------------|-------------------------------------------9--10-----|
A|-----------------------------------------|-------------------------------------9--10-----------|
E|-----------------------------------------|-----------------------------------------------------|
 |                                                                                       
 |Shi - kou  ka - iro  sho - tto  sun - zen   I -  ma   su - gu   ai - tai  yo.__                                                                      
 |                                                                                       
E|-----------------0-----------------------|-------0----0----------------------------------------|
B|-----------------2-----------------------|-------2----2----------------------------------------|
G|-------4----4----2-----------------------|-------2----2----------------------------------------|
D|-------4----4----2----5----5----4----7---|-------2----2----5----4---------5--------------------|
A|-------2----2----0----5----5----4----7---|-------0----0----5----4----2----5--------------------|
E|--0-------------------3----3----2----5---|--0--------------3----2----0----3--------------------|



CHORUS
Riff 1

E|--5----5---7---7---9---11---9-----------------------|---5---5----7---9---11-----------------------|
B|--0----0---0---0---0---0----0----5---5--/--7--/--9--|---0---0----0---0---0----12---10---8---7-----|
G|---------------------------------4---4--/--6--/--8--|---------------------------------------------|
D|----------------------------------------------------|---------------------------------------------|
A|----------------------------------------------------|---------------------------------------------|
E|----------------------------------------------------|---------------------------------------------|
 |                                                                                                    
 |Tsu - ki  no hi - ka - ri  ni  mi - chi  - bi - kare    Na - n - do - mo  me - gu - ri - a - u        
 |                                                                                                    
E|-----------------------------------------------------|--------------------------------------------|
B|-----------------------------------------------------|--------------------------------------------|
G|--4----4---6---6---7---9---7-------------------------|--4---4----6---7---9------------------------|
D|--4----4---6---6---7---9---7-----5---5--/--7--/--9---|--4---4----6---7---9----9----7----5---4-----|
A|--2----2---4---4---5---7---5-----5---5--/--7--/--9---|--2---2----4---5---7----9----7----5---4-----|
E|---------------------------------3---3--/--5--/--7---|------------------------7----5----3---2-----|

Riff 2

E|--------------------------4---3--|
B|----------4---3------------------|
G|------------------3---4----------|
D|---4---5-------------------------|
A|---------------------------------|
E|---------------------------------|

Riff 3

E|--0----7----7----5----3------2----5---|--0----5----5----3----2----0----3--|
B|--0----0----0----0----0------0----0---|--0----0----0----0----0----0----0--|
G|--------------------------------------|-----------------------------------|
D|--------------------------------------|-----------------------------------|
A|--------------------------------------|-----------------------------------|
E|--------------------------------------|-----------------------------------|
 |
 |
 |
E|-----------------0-----------------------|-------0----0----------------------|
B|-----------------2-----------------------|-------2----2----------------------|
G|-------4----4----2-----------------------|-------2----2----------------------|
D|-------4----4----2----5----5----4---7----|-------2----2----5----4---------5--|
A|-------2----2----0----5----5----4---7----|-------0----0----5----4----2----5--|
E|--0-------------------3----3----2---5----|--0--------------3----2----0----3--|

Riff 4

E|--0----7----7----7---5----5---7----7----10---8-----|-0---5----7----5----3----2----0--------|
B|--0----0----0----0---0----0---0----0----0----0-----|-0---0----0----0----0----0----0--------|
G|---------------------------------------------------|---------------------------------------|
D|---------------------------------------------------|---------------------------------------|
A|---------------------------------------------------|---------------------------------------|
E|---------------------------------------------------|---------------------------------------|
 |                                                                                        
 |  O - na - ji   ku - ni  ni  u - mare - ta - no     Mi - ra - ku - ru  ro - man - su                                   
 |                                                                                        
E|---------------------0----0------------------------|-----0------------------------0--------------|
B|---------------------2----2------------------------|-----2------------------------2--------------|
G|-------4----4----4---2----2---5----5----9----7-----|-----2----9----7----5----4----2-------------|
D|-------4----4----4---2----2---5----5----9----7-----|-----2----9----7----5----4----2-------------|
A|-------2----2----2---0----0---3----3----7----5-----|-----0----7----5----3----2----0-------------|
E|--0------------------------------------------------|-0------------------------------------------|

END

Riff 1

E|--5----7----5----3----2---0---|--5----2----3----2---2----3----3-/-4--6--s/--|
B|--0----0----0----0----0---0---|--0----0----0----0---0----0----0---0--0--s/--|
G|------------------------------|---------------------------------------------|
D|------------------------------|---------------------------------------------|
A|------------------------------|---------------------------------------------|
E|------------------------------|---------------------------------------------|
 |                                                                               
 |Shin - ji - te - i - ru - no     Mi - ra - ku - ru  ro - ma - n -  su              
 |                                                                                         
E|--0-----------------------0---|--0------------------------------------------|
B|--2-----------------------2---|--2------------------------------------------|
G|--2----9----7----5----4---2---|--2----4----5----6--------7----8------9------|
D|--2----9----7----5----4---2---|--2----4----5----6--------7----8------9------|
A|--0----7----5----3----2---0---|--0----2----3----4--------5----6------7--s/--|
E|------------------------------|---------------------0-----------------------|
 

Comments