Misc - Mississippi Blues Chords & Tabs

 

Mississippi Blues Chords & Tabs

Misc Chords & Tabs

Version: 2 Type: Tab 0 ratings
1 star 2 stars 3 stars 4 stars 5 stars
comments

Mississippi Blues Tab

   
#----------------------------------PLEASE NOTE---------------------------------#
#This file is the author's own work and represents their interpretation of the #
#song. You may only use this file for private study, scholarship, or research. #
#------------------------------------------------------------------------------##
Received: from animal-farm.nevada.edu by redrock.nevada.edu (5.65c/M1.4)
	with SMTP id ; Tue, 9 Mar 1993 13:27:10 -0800
Received: from madrone.eecs.ucdavis.edu by animal-farm.nevada.edu id ; Tue, 9 Mar 1993 13:27:08 -0800
Received: by madrone.eecs.ucdavis.edu (5.57/Ultrix3.0-C/eecs 1.1)
	id AA14232; Tue, 9 Mar 93 13:27:05 -0800
Date: Tue, 9 Mar 93 13:27:05 -0800
From: darsie@eecs.ucdavis.edu (Richard Darsie)
Message-Id: <9303092127.AA14232@madrone.eecs.ucdavis.edu>
To: jamesb@animal-farm.nevada.edu
Subject: Tab: Mississippi Blues


More tab from acoustic guitar mail list...

Mississippi Blues
As remembered by Dan Johnson

p  =  pull off
s  =  slide
b  =  bend
h  =  hammer
st =  strum
\  =  downbeat
bl =  block (dampen strings)

Chords used:

E7                       D/F#                     Dm7/F

E|   |   |   |   |   |   E|   |   |   |   |   |   E|   |   |   |   |   X
b|   |   | 4 |   |   |   b|   |   | 4 |   |   |   b| 1 |   |   |   |   |
G| 1 |   |   |   |   |   G|   | 3 |   |   |   |   G|   | 3 |   |   |   |
D|   | 3 |   |   |   |   D|   |   |   |   |   |   D|   |   |   |   |   |
A|   | 2 |   |   |   |   A|   |   |   |   |   |   A|   |   |   |   |   |
E|   |   |   |   |   |   E|   | 2 |   |   |   |   E| T |   |   |   |   |

E7 (C7 bar 4)            A7 (D7 bar 7)            A (bar)
  <4th fret                    <7th fret
E|   |   |   |   |   |   E|   |   | 4 |   |   |   E|   | 1 |   |   |   |
b| 1 |   |   |   |   |   b|   | 2 |   |   |   |   b|   | 1 |   |   |   |
G|   |   | 4 |   |   |   G|   |   | 3 |   |   |   G|   | 1 |   |   |   |
D|   | 2 |   |   |   |   D| 1 |   |   |   |   |   D|   | 1 |   |   |   |
A|   |   | 3 |   |   |   A|   |   |   |   |   |   A|   |   |   |   |   |
E|   |   |   |   |   X   E|   |   |   |   |   |   E|   |   |   |   |   |

A (reg)                  A (E bar 5)              D7/F#  (D9/F# ?)
                              <5th fret
E|   |   |   |   |   |   E| 1 |   |   |   |   |   E|   |   |   |   |   |
b|   | 4 |   |   |   |   b| 1 |   |   |   |   |   b| 1 |   |   |   |   |
G|   | 3 |   |   |   |   G|   | 2 |   |   |   |   G|   | 3 |   |   |   |
D|   | 2 |   |   |   |   D|   |   |   |   |   X   D|   |   |   |   |   |
A|   |   |   |   |   |   A|   |   |   |   |   |   A|   |   |   |   |   |
E|   |   |   |   |   |   E|   |   |   |   |   |   E|   | 2 |   |   |   |



INTRO

  D7/F#                              A(BAR)               D7/F#    Dm7/F#

|------------------------------------|-----------1------------------------|
|-1-----0----------------------------|-------2---2--------3--------1----0-|
|----2-----2-p-0---------------------|----2----------2---------2-------2--|
|-----------------2---1--0-----------|------------------------------------|
|----------0-----------------2b3b2-0-|------------------------------------|
|-2-------------------2--------------|--0--------3--------2---------1-----|

  \        \          \       \         \        \        \         \


VERSE
                              I'm goin ...
  A(reg) 7   E7                      A (E bar 5)
|---------------0--------------------|----7-----------------------------7-|
|--2---------3-----------------------|----8---------------7----5--------8-|
|--2---------1---------------4--5--s-|-6--6---------6-----6----6----5h6---|
|------------------------------------|------------------------------------|
|--0-----2---------------0-----------|---------0--------------------0-----|
|-----0-------------0----------------|-0------------------0---------------|
  bl
 \       \          \          \        \      \          \         \


[ Tab from: http://www.guitartabs.cc/tabs/m/misc/mississippi_blues_tab_ver_2.html ]
                                          A (E bar 5)
|-----------5----5-------------------|---7------------------------------7-|
|-----------7----5-------------------|---8---------------7----5---------8-|
|------6----6----6-------4----5----6-|---6----------6----6----6----5h6----|
|------------------------------------|------------------------------------|
|-----------0-----------------0------|---------0--------------------0-----|
|-0------------------0---------------|--0----------------0----------------|

  \         \        \        \         \      \         \          \



                                      D9/F#                          D9/F#
|-----------5----5-------------------|-----0--------0---------------------|
|-----------7----5-------------------|--1-----1--0-----0------------------|
|------6----6----6-------0----1----2-|--2--------2---------2---0----1---2-|
|------------------------0----0----0-|-----------0---------0---0----0---0-|
|-----------0------------------------|------------------------------------|
|-0-----------------0---------1------|--2------------------2--------1-----|
                                                          bl
  \         \       \         \         \        \         \        \


                                             A (E bar 5)
|-----0---------0--------------------|------7---------------------------7-|
|-1------1---0----1--2---------------|------8------------7----5---------8-|
|-2----------2-------0---------------|------6-------6----6----6----5h6----|
|------------0-------------4---5---6-|------------------------------------|
|------------------------------------|----------0------------------0------|
|-2------------------2---------------|--0----------------0----------------|
                    bl
  \          \       \         \        \       \        \         \
                                               E7
|---------5-----5--------5----7---3--|--4-s-0--------------------0--------|
|---------7-----5--------6----7---4--|--5-s-0--------3----------------2---|
|----6----6-----6--------------------|---------0 h 1-1------------------1-|
|------------------------------------|---------2--------------------------|
|---------0-------------------0------|---------2--------------------2-----|
|-0------------------0---------------|--0-----------------0---------------|

  \       \          \        \         \      \          \         \


  D7/F#                                 A(BAR)            D/F#      Dm7/F#

|------------------------------------|-----------1------------------------|
|-1-----0----------------------------|--------2--2--------3---------1---0-|
|----2------2-p-0--------------------|-----2---------2---------2------2---|
|------------------2---1--0----------|------------------------------------|
|-----------0----------------2b3b2-0-|------------------------------------|
|-2--------------------2-------------|--0--------3--------2---------1-----|

  \         \          \       \        \        \        \         \


GO TO VERSE

OR

GO TO ENDING


ENDING

  A(bar)    E7(C7 b 4) A7 (D7 bar 7)
|----------------------9------------|
|-1---------5----------8------------|
|-1---------7----------9------------|
|-----------6----------7------------|
|-0---------7-----------------------|
|-----------------------------------|
  bl        bl         st st st st st
  \         \          \       \
                       strum and brush
                         rapidly to end

Here's a couple versions of the words that people have passed to me:

VERSION I:

Goin' down the delta where I can have my fun. (2x)
Where I can drink my white lightnin' and gamble,
I can bring my baby home.

Don't the delta look lonely when that evenin' sun goes down. (2x)
Well, you're lookin' for your baby,
   don't know where she could be found.

Goin' back to my usta be although that she done me wrong. (2x)
Well, I think I'll have to forgive her,
   'cause I'm tired of drifting through this world alone.

She treat me dirty, but I love her just the same. (2x)
Well, it just break my heart to hear her
   call some other man call her name.

Now goodbye, I'm going to leave you and I won't be back no more. (2x)
And my mind gets to rambling,
   see you in 1944.


VERSION II:

I'm going down to the Delta
You know where I can have my fun

Well I'm going back to the delta
You kknow where I can have my fun

Where I can drink my white light'nin and gamble
Where I can bring my baby home

Now don't the delta look lonesome when the
Lord when the ev'nin sun go down

Now don't hte delta look lonesome when the
Evenin sun go down

When you been lookin for your baby
Don't know where he could be found

BREAK

He treat me dirty but I
Lord don't you know I lave him just the same

He treat me dirty
but I love him just the same

You know it just breaks my heart to hear
Some other gal call his name

BREAK

Well now goodbye I'm going to leave you and I
Said I won't be home no more

Well goodbye I'm going to leave you
I won't be back no more

You know if I find me a good man
Lord said I won't be back no more


Version II transcribed from
"I'm In Love" by Rory Block

1976 Blue Goose Records
#2022

Comments